» » »

Hot Water Music, Free Radio Gainesville Bass tabs (ver.1)

Artists:  A B C D E F G H I J K L M N O P Q R S T U V W X Y Z # 

Free Radio Gainesville Bass tabs (ver.1)

Hot Water Music Tabs
Rating:
0/5 (0 votes)
Free Radio Gainesville lessons Tabs too difficult? Try these video lessons and learn fast
                Artist; Hot Water Music                                                    [cLifFd!v3r]
Song; Free Radio Gainsville
Album; No Division(If You Don't Have It, Get It!)
Bassist; Jason Black

Hope You Enjoy It XD

(Verse x10)      (0.00)
G]--------|--------|--------|------------]
D]-----2--|-----2--|--------|------------]
A]44424-42|44424-42|--4-242-|--4-242-----]
E]--------|--------|00-0---0|22-2---2----]

(Chorus x4)      (0.50)
G]--------|--------|--------|------------]
D]--------|--------|--------|------------]
A]4-44-44-|0-00-00-|--------|------------]
E]--------|--------|0-00-00-|2-22-22-----]

(Pre-Verse x8)   (1.09)
G]--------------]
D]-----2--------]
A]44424-42------]
E]--------------]

(Verse x4)       (1.20)
(Chorus x2)      (1.40)
(Outro/Chorus X5)(1.50)
G]---------|---------|--------|------------]
D]-------2-|---------|--------|------------]
A]44~-2h4-4|00~-40h24|----4-24|----4-24----]
E]---------|---------|00~--0--|22~--2------]

(Ending)         (2.15)
G]---------|---------|--------|------------]
D]-------2-|---------|--------|------------]
A]44~-2h4-4|00~-40h24|----4-24|----4-24~~--]
E]---------|---------|00~--0--|22~--2------]

There You Go Guys! Rate It If You Wish
Peace Out XD
            
Submit corrections

comments powered by Disqus
↑ Back to top | Hot Water Music Bass for Free Radio Gainesville. Lyrics for acoustic guitar and electric guitar. Tablatures and chords are parodies/interpretations of the original songs. You may use it for private study, scholarship, research or language learning purposes only