» » »

Hot Water Music, Drunken Third Bass tabs (ver.1)

Artists:  A B C D E F G H I J K L M N O P Q R S T U V W X Y Z # 

Drunken Third Bass tabs (ver.1)

Hot Water Music Tabs
Rating:
0/5 (0 votes)
Drunken Third lessons Tabs too difficult? Try these video lessons and learn fast
                This song is awesome. That’s all there is to it.

Intro
G|------------------------------------ x6
D|------------------------------------
A|------------------------------------
E|-0000000000000000-44444444-55555555-

Verse 1
G|------------------------------------ x4
D|------------------------------------
A|------------------------------------
E|-0000000000000000-44444444-55555555-

Chorus 1
G|----------------------------------- \
D|-----------------------------------  \
A|-4444444444444444------------------   \
E|------------------0000000000000000-    \ x2
                                         /
G|-----------------------------------   /
D|------------9-9-9------------------  /
A|----------7--7-7------------------- /
E|-55555555---------7777777777777777-/

In Between Chorus And Verse
G|------------------------------------ x2
D|------------------------------------
A|------------------------------------
E|-0000000000000000-44444444-55555555-

Verse 2
Play the exact same thing as verse 1.

Chorus 2
Play the exact same thing as chorus 1.

Bridge/Outro
G|---------------------------------------- x2
D|----------------------------------------
A|-----------3-5-3-------7777777777777777-
E|-0h2222-22-------5-55/------------------

G|--------------------------------------------- x8
D|---------------------------------------------
A|---------------------------------------------
E|-0h2222-22-0h2222-22-0h2222-22-0h2222-223333-

G|-----------------
D|-----------------
A|-9\--9\--9\------
E|-------------222-

That’s it. This is one kick ass song. Spread it’s greatness.
            
Submit corrections

comments powered by Disqus
↑ Back to top | Hot Water Music Bass for Drunken Third. Lyrics for acoustic guitar and electric guitar. Tablatures and chords are parodies/interpretations of the original songs. You may use it for private study, scholarship, research or language learning purposes only