» » »

Hot Water Music, Blackjaw Bass tabs (ver.1)

Artists:  A B C D E F G H I J K L M N O P Q R S T U V W X Y Z # 

Blackjaw Bass tabs (ver.1)

Hot Water Music Tabs
 Rating:
3.8/5 (5 votes)
Blackjaw lessons Tabs too difficult? Try these video lessons and learn fast
1
                ----------------------------------------------------------------------------
----------------------------------------------------------------------------


Tuning: Standard

           {Bass comes in at 0:14}
{Verse}
G|-----------------------------------------7---------------------------------
D|---------0-5h7-4h5--0-5h7-4h5--0-7h9-7h9--9-754----------------------------|
A|---------------------------------------------------------------------------|
E|---------------------------------------------------------------------------|
           Repeat verse 8x then:

G|----------------------------------------------------------------2----------|
D|--------------------------------------222-444----------------2h4-22h4------|
A|--22-22-22-22-22-22-22-22-22-22-22-22---------22-22-22-22-22---------------|
E|---------------------------------------------------------------------------|

G|---------------------------------------------------------------------------|
D|-------------------222-444-------------------------------------------------|
A|-22-22-22-22-22-22---------------------------------------------------------|
E|---------------------------------------------------------------------------|

Verse again 8x

{Bridge}
G|---------------------------------------------------------------------------|
D|--444444-5555--------444444-5555--------444444-5555------------------------|
A|---------------------------------------------------------------------------|
E|---------------------------------------------------------------------------|

G|---------------------------------------------------------------------------|
D|--444444-555555-444444-555555-444444-555555-444444-555555-444444-555555----|
A|---------------------------------------------------------------------------|
E|---------------------------------------------------------------------------|
              
G|---------------------------------------------------------------------------|
D|-----4---------4--------------------4---------4----------5-4---------------|
A|--555-5-4-222-4-5------------4/5-555-5-4-222-4-5------------7--------------|
E|------------------33333333333-------------------333333333------------------|

G|---------------------------------------------------------------------------|
D|-----4-----4h54---------4b-4b---4---------4--------------------------------|
A|--555-5-4-2----54------------555-5-4-222-4-5-------------------------------|
E|-----------------333333---------------------333333333333-------------------|
              Now the Outro (this part took me forever)
{Outro} Repeat 4x                            At the end of those let 5 ring
G|----7--7--7-----7--------7--7--7-----7---|---------------------------------|
D|---5--5--5--5\4---5-----5--5--5--5\4---5-|---------------------------------|
A|--5--5-----------------7--7--------------|--5~~~---------------------------|
E|-----------------------------------------|---------------------------------|

And when the guitar hits its final note at 3:04 I like to end on this note.
E|--7--|
A|--5--|

This is my first time takng a stab at tabbing out a song so I hope it'a good. 
It sounds fine to me, but I know there's also plenty of variation in the verse that I didn't tab. 
Rate it!

| /  slide up
| \  slide down
| h  hammer-on
| p  pull-off
| ~  vibrato
| +  harmonic
| x  Mute note
============================================================================
            
Submit corrections

comments powered by Disqus
↑ Back to top | Hot Water Music Bass for Blackjaw. Lyrics for acoustic guitar and electric guitar. 1 Tablatures and chords are parodies/interpretations of the original songs. You may use it for private study, scholarship, research or language learning purposes only