» » »

At The End Of A Gun Tabs (ver.1)

Artists:  A B C D E F G H I J K L M N O P Q R S T U V W X Y Z # 

At The End Of A Gun Tabs (ver.1)

Hot Water Music
Rating:
0/5 (0 votes)

Tabs too difficult? Try these video lessons and learn fast.
                This is a pretty easy song to play, maybe a little harder to learn where everything goes 
in it.

Intro/Verse Lead - start the song by repeating the first part
e|-----------------|-------------------------------------------|
B|-----5-------5---|-7---7---5---5-----------------------------|
G|-4h5---5-4h5---5-|---5---5---5---5---------------------------|
D|-----------------|-------------------------------------------|
A|-----------------|-------------------------------------------|
E|-----------------|-------------------------------------------|


Verse Rhythm - "We can waste, we can come and go..."
e|--------------------------------------------------------------|
B|--------------------------------------------------------------|
G|-5------------------------------------------------------------|
D|-5---5---3----------------------------------------------------|
A|-3---5---3----------------------------------------------------|
E|-----3---1----------------------------------------------------|


Verse Octaves - "About suffering and pain, we can live our lives in shame..."
e|--------------------------------|-----------------------------------|
B|--------------------------------|-----------------------------------|
G|-7---7---5---5---4---4----------|--9-9-9-9-9-9-9-9-7-7-7-7-5-5-5-5--|
D|-------------------------7---5--|-----------------------------------|
A|-5---5---3---3---2---2----------|--7-7-7-7-7-7-7-7-5-5-5-5-3-3-3-3--|
E|-------------------------5---3--|-----------------------------------|
hold last octave to chorus


Chorus Rhythm - "But we need to recognize that we are dying if we live alone..."
e|--------------------------------------------------------------|
B|--------------------------------------------------------------|
G|-5---4--------------------------------------------------------|
D|-5---5---7---5---3--------------------------------------------|
A|-3---2---7---5---3--------------------------------------------|
E|---------5---3---1--------------------------------------------|

Transition to bridge
e|--------------------------------------------------------------|
B|--------------------------------------------------------------|
G|--------------------------------------------------------------|
D|--------------------------------------------------------------|
A|--5----5/7---3------------------------------------------------|
E|--------------------------------------------------------------|

Bridge
e|--------5---3-------------5---3--|0-0-0-0-1-1-0-0--------------|
B|-1/3h5-------------1/3h5---------|-1-1-1-1-1-1-1-1-------------|
G|---------------------------------|-----------------------------|
D|---------------------------------|-----------------------------|
A|---------------------------------|-----------------------------|
E|---------------------------------|-----------------------------|
Last time bridge goes back and forth on the 5 & 3 on e

Outtro - "Cause that's nothing but dying, and we're nothing..."
e|--------------------------------------------------------------|
B|--------------------------------------------------------------|
G|-5------------------------------------------------------------|
D|-5---5---3----------------------------------------------------|
A|-3---5---3----------------------------------------------------|
E|-----3---1----------------------------------------------------|
This is played slightly different than the verse. The first chord change happens sooner.

Outtro Lead
e|--------------------------------------------------------------|
B|--------------------------------------------------------------|
G|--5----7-9-5-----9-10-9---5-----------------------------------|
D|--------------------------------------------------------------|
A|--------------------------------------------------------------|
E|--------------------------------------------------------------|


Awesome song
            
Tabs too difficult? Try these video lessons and learn fast.




comments powered by Disqus
↑ Back to top | Tablatures and chords are parodies/interpretations of the original songs. You may use it for private study, scholarship, research or language learning purposes only