» » »

Hot Water Music, Alright For Now Bass tabs (ver.1)

Artists:  A B C D E F G H I J K L M N O P Q R S T U V W X Y Z # 

Alright For Now Bass tabs (ver.1)

Hot Water Music Tabs
Rating:
0/5 (0 votes)
Hard to play? Try these video lessons and learn fast.
                Standard 4 string tuning

Intro and Verse
|-------------------|-------------------|
|-------------------|-------------------|
|-0-0-0-0-0-3h2-3-5-|-0-0-0-0-0-3h2-3-5-|
|-------------------|-------------------|

|-------------------|-------------------|
|-------------------|-------------------|
|-----------3h2-3-5-|-----------3h2-3-5-|
|-3-3-3-3-3---------|-3-3-3-3-3---------|


Chorus
|----------------------------------|
|----------------------------------|
|---------3-3-3-3---------0-0-0-0--|
|-1-1-1-1---------3-3-3-3---------1|


Second Verse	
|-------------------|-------------------|
|-------------------|-------------------|
|-0-0-0-0-0-3h2-3-5-|-0-0-0-0-0-3h2-3-5-|
|-------------------|-------------------|
							X2
|-------------------|-------------------|
|-------------------|-------------------|
|-----------3h2-3-5-|-----------3h2-3-5-|
|-3-3-3-3-3---------|-3-3-3-3-3---------|

|-------|
|-------|
|-------| Pause
|-5\----|

|-------------------|-------------------|
|-------------------|-------------------|
|-0-0-0-0-0-3h2-3-5-|-0-0-0-0-0-3h2-3-5-|
|-------------------|-------------------|
							
|-------------------|-------------------|
|-------------------|-------------------|
|-----------3h2-3-5-|-----------3h2-3-5-|
|-3-3-3-3-3---------|-3-3-3-3-3---------|

Bridge
|--------|
|--------|
|-5-3----|
|-----3--| 

Bridge Variation 
Jason improvises around the root notes this is the most obvious one
|----------------|
|-------3-5-3----| 
|-5-3---------5-3|
|-----3----------|

Chorus Variation
|----------------------------------|
|----------------------------------|
|---------3-3-3-3---------0-0-0-0-1|
|-1-1-1-1---------3-3-3-3----------|

End on
|-------|
|-------|
|-5-----| 
|-------|
            

comments powered by Disqus
↑ Back to top | Hot Water Music Bass for Alright For Now. Lyrics for acoustic guitar and electric guitar. Tablatures and chords are parodies/interpretations of the original songs. You may use it for private study, scholarship, research or language learning purposes only