» » »

Tokyo Vogue Bass tabs (ver.1)

Artists:  A B C D E F G H I J K L M N O P Q R S T U V W X Y Z # 

Tokyo Vogue Bass tabs (ver.1)

Hot Hot Heat
Rating:
0/5 (0 votes)

Hard to play? Try these video lessons and learn fast.
                
Main riff 
G|-------------------|---------------------|
D|-------------------|---------------------|
A|--3-0---3-0---3-0--|--3-0---3-0---3-0---3| x2
E|------3-----3-----3|------3-----3-----3-2|

  Riff 2                                           
G|---------------------------------------------|
D|---------------------------------------------|
A|--3--3-3-3-3-3--3-3-3-3-3--3-3-3-3-----------| x4
E|-----------------------------------2--2-2-2-2|
        
Play first section of main riff four times 

Main riff variation (play during second play of main riff section)
G|-------------------|
D|--------------3----|
A|--3-0---3-0-----0--|
E|------3-----3-----3|

Keyboard and drum break, then

Pre-pre-breakdown riff
G|---------------------------------------------------------|
D|---------------------------------------------------------|
A|--2-2-2-2--2-2--2-2-2-2-2-2-2-3-3-3-3--3-3--3-3-3-3-3-3-3| x4
E|---------------------------------------------------------|

Drum break

Pre-breakdown (continues throughout breakdown)
G|--5|---------------------------5|
D|--4|--10-9\-x-6-5\-x-4-3-3-3-2-4|
A|---|----------------------------|
E|---|----------------------------|

Play main riff until drum break at the end of the song.
            
Hard to play? Try these video lessons and learn fast. | Correct




comments powered by Disqus
↑ Back to top | Tablatures and chords are parodies/interpretations of the original songs. You may use it for private study, scholarship, research or language learning purposes only