» » »

Hot Hot Heat, Oh, Goddamnit Bass tabs (ver.1)

Artists:  A B C D E F G H I J K L M N O P Q R S T U V W X Y Z # 

Oh, Goddamnit Bass tabs (ver.1)

Hot Hot Heat Tabs
 Rating:
4/5 (4 votes)
Oh, Goddamnit lessons Tabs too difficult? Try these video lessons and learn fast
1
                Intro(0:27) 
G|--------------------------------|--------------------------------|
D|----------9-----11--11--9-------|----------9-----11--11--13------|
A|--------9-----9-----------------|--------9-----9-----------------|
E|7---7---------------------------|7---7---------------------------|
Play this fast

G|--------------------------------|--------------------------------|
D|--------------------------------|------------------------9-------|
A|9---9-----------9---11--9-------|9---9-----------9---11----------|
E|--------------9-----------------|--------------9-----------------|

Verse(0:35) (Same as Inrto)
G|--------------------------------|--------------------------------|
D|----------9-----11--11--9-------|----------9-----11--11--13------|
A|--------9-----9-----------------|--------9-----9-----------------|
E|7---7---------------------------|7---7---------------------------|


G|--------------------------------|--------------------------------|
D|--------------------------------|------------------------9-------|
A|9---9-----------9---11--9-------|9---9-----------9---11----------|
E|--------------9-----------------|--------------9-----------------|


Chorus(0:42)
G|--------------------------------|--------------------------------|
D|--------------------------------|--------------------------------|
A|--------------------------------|7-7-7-7-7-7-6-7-9---------------|
E|0-0-0-0-0-0-0-0-2-2-2-2-2-2-2-2-|--------------------------------|


1/2 of verse(0:50)
G|--------------------------------|--------------------------------|
D|----------9-----11--11--9-------|----------9-----11--11--13------|
A|--------9-----9-----------------|--------9-----9-----------------|
E|7---7---------------------------|7---7---------------------------|


Bridge(0:54)
G|--------------------------------|--------------------------------|
D|--------------------------------|--------------------------------|
A|--------------------------------|--------------------------------|
E|7-----7-6-----6-4-----4-2-----2-|0---------0---0-2---------2---2-|


G|--------------------------------|--------------------------------|
D|--------------------------------|--------------------------------|
A|--------------------------------|--------------------------------|
E|7-----7-6-----6-4-----4-2-----2-|0---------0---0-2---------2---2-|


Verse(1:09)
G|--------------------------------|--------------------------------|
D|----------9-----11--11--9-------|----------9-----11--11--13------|
A|--------9-----9-----------------|--------9-----9-----------------|
E|7---7---------------------------|7---7---------------------------|


G|--------------------------------|--------------------------------|
D|--------------------------------|------------------------9-------|
A|9---9-----------9---11--9-------|9---9-----------9---11----------|
E|--------------9-----------------|--------------9-----------------|


G|--------------------------------|--------------------------------|
D|----------9-----11--11--9-------|----------9-----11--11--13------|
A|--------9-----9-----------------|--------9-----9-----------------|
E|7---7---------------------------|7---7---------------------------|


G|--------------------------------|--------------------------------|
D|--------------------------------|------------------------9-------|
A|9---9-----------9---11--9-------|9---9-----------9---11----------|
E|--------------9-----------------|--------------9-----------------|


Chorus(1:24)
G|--------------------------------|--------------------------------|
D|--------------------------------|--------------------------------|
A|--------------------------------|--------------------------------|
E|0-0-0-0-0-0-0-0-2-2-2-2-2-2-2-2-|0-0-0-0-0-0-0-0-----2-----------|


G|--------------------------------|
D|--------------------------------|
A|--------------------------------|
E|0-0-0-0-0-0-0-0-2---------------|


Bridge(1:36)
G|--------------------------------|--------------------------------|
D|--------------------------------|--------------------------------|
A|--------------------------------|--------------------------------|
E|7-----7-6-----6-4-----4-2-----2-|0---------0---0-2---------2---2-|


G|--------------------------------|--------------------------------|
D|--------------------------------|--------------------------------|
A|--------------------------------|--------------------------------|
E|7-----7-6-----6-4-----4-2-----2-|0---------0---0-2---------2---2-|


Final Verse(1:50)
G|--------------------------------|--------------------------------|
D|--------------------------------|--------------------------------|
A|--------------------------------|--------------------------------|
E|0---------0---0-2---------2---2-|4-4-4-4-4-4-4-4/1717171717171717|
						      ^Those are 17's

G|--------------------------------|--------------------------------|
D|--------------------------------|--------------------------------|
A|7-----7-6-----6-4-----4-2-----2-|0---------0---0-2---------2---2-|
E|--------------------------------|--------------------------------|


G|--------------------------------|--------------------------------|
D|--------------------------------|--------------------------------|
A|7-----7-6-----6-4-----4-2-----2-|0---------0---0-2---------2---2-|
E|--------------------------------|--------------------------------|


G|--------------------------------|--------------------------------|
D|--------------------------------|--------------------------------|
A|7-----7-6-----6-4-----4-2-----2-|0---------0---0-2---------2---2-|
E|--------------------------------|--------------------------------|


G|--------------------------------|--------------------------------|-|
D|--------------------------------|--------------------------------|-|
A|7-----7-6-----6-4-----4-2-----2-|4---------4---4-2---------2---2-|7|
E|--------------------------------|--------------------------------|-|


			>>
            
Submit corrections

comments powered by Disqus
↑ Back to top | Hot Hot Heat Bass for Oh, Goddamnit. Lyrics for acoustic guitar and electric guitar. 1 Tablatures and chords are parodies/interpretations of the original songs. You may use it for private study, scholarship, research or language learning purposes only