» » »

Hot Hot Heat, Naked In The City Again Bass tabs (ver.1)

Artists:  A B C D E F G H I J K L M N O P Q R S T U V W X Y Z # 

Naked In The City Again Bass tabs (ver.1)

Hot Hot Heat Tabs
Rating:
0/5 (0 votes)
Hard to play? Try these video lessons and learn fast.
                "(1)
Submission by Paulie Jay

Bass tab. Standard tuning.


INTRO
G------------------
D------------------
A-----0------------ Hold and let fade over 2 bars
E------------------

VERSE "Since she's got it all..."
G--------------------------------------------------------
D--------------------------------------------------------
A-------------------4------------------------------------
E---6-6-----4-6-6------6---4---2-2----1-2-2---4---2---4--

G--------------------------------------------------------
D--------------------------------------------------------
A-------------------4------------------------------------
E---6-6-----4-6-6------6---4---2-2----1-2-2---4---2---4--

G--------------------------------------------------------
D--------------------------------------------------------
A-------------------4------------------------------------
E---6-6-----4-6-6------6---4---2-2----1-2-2---4---2---4--

G--------------------------------------------------------
D--------------------------------------------------------
A-------------------4------------------------------------
E---6-6-----4-6-6------6---4---2-2----1-2-2---4---2---4--

G--------------------------------------------------------
D--------------------------------------------------------
A-------------------4------------------------------------
E---6-6-----4-6-6------6---4---2-2----1-2-2---4---2---4--

G--------------------------------------------------------
D--------------------------------------------------------
A-------------------4------------------------------------
E---6-6-----4-6-6------6---4---2-2----1-2-2---4---2---4--

Silent for one bar, then 

CHORUS "Lost and naked in the citY..."
G-----------------------------------
D--------------------------3-3------
A--------4-------4-6-6-6-6----------
E--6-6-6---6-6-6---------------4-4--

G-----------------------------------
D--------------------------3-3-6-6--
A--------4-------4-6-6-6-6----------
E--6-6-6---6-6-6--------------------

Repeat this phrase another three times.

VERSE 2.
Same as verse 1, but play the bassline 4 times instead of 6.

CHORUS 2

G-----------------------------------
D--------------------------3-3------
A--------4-------4-6-6-6-6----------
E--6-6-6---6-6-6---------------4-4--

G-----------------------------------
D--------------------------3-3-6-6--
A--------4-------4-6-6-6-6----------
E--6-6-6---6-6-6--------------------

Play 3 times, then on the fourth time play the following
 
G--------------------------------------------------
D---8-8-8-----6-------4-------8------6------4------
A---------8-------6-------4------8------6-------4--
E--------------------------------------------------

Silent for 4 bars then... (su = slide up, sd= slide down)

G------9------------9-------------9-------------9-----
D----8------su11sd8-------su11sd8-------su11sd8-------
A-----------------------------------------------------
E-----------------------------------------------------

G-----------9-------------9-------------9-------------9
D---su11sd8-------su11sd8-------su11sd8-------su11sd8--
A------------------------------------------------------
E------------------------------------------------------

G------------------------------------
D--7-7-7-7-7-7-7-7-7-7-7-7-7-7-------
A------------------------------7-7--- PLAY 4 TIMES
E------------------------------------

LAST CHORUS
G---------------7-7---6-6---7-7-9-9--
D---7-7---0-0------------------------ PLAY 8 TIMES
A------------------------------------ 
E------------------------------------

G----------------
D----------------
A---0------------ Let fade.
E----------------


Performance tips.

For best results, use a pick, a passive bass and a 
tube amp pushed into slight distortion.

In the middle part with the slides, be sure to allow the 
Bb to ring while you play the E.
"            

comments powered by Disqus
↑ Back to top | Hot Hot Heat Bass for Naked In The City Again. Lyrics for acoustic guitar and electric guitar. Tablatures and chords are parodies/interpretations of the original songs. You may use it for private study, scholarship, research or language learning purposes only