» » »

Middle Of Nowhere Tabs (ver.5)

Artists:  A B C D E F G H I J K L M N O P Q R S T U V W X Y Z # 

Middle Of Nowhere Tabs (ver.5)

Hot Hot Heat
Rating:
0/5 (0 votes)

Hard to play? Try these video lessons and learn fast.
                Middle Of Nowhere - Hot hot heat.

Legend:-
x :- mute
d :- downstroke
u :- upstroke
 
Intro:- (I have put the lead as well as the rhythm)

e|----------------------------------------------------------------|
B|------------15-15----12----------12-----15-15-15-13--12---------|
G|---------11-------14---14--14-14----14-------------------14-12--|
D|---12-14--------------------------------------------------------| 
A|-12-------------------------------------------------------------|
E|----------------------------------------------------------------|

e|-10-10---10---10-10---10---1-1---1---1-1---1--------------------------------------------|
B|-10-10---10---10-10---10---3-3---3---3-3---3---5-5---5---5-5---5---8-8---8---8-8---8----|
G|-11-11---11---11-11---11---3-3---3---3-3---3---5-5---5---5-5---5---7-7---7---7-7---7----|
D|-----------------------------------------------7-7---7---7-7---7---9-9---9---9-9---9----|
A|----------------------------------------------------------------------------------------|
E|----------------------------------------------------------------------------------------|


Verse:- 

e|-10-10---10---10-10---10---1-1---1---1-1---1--------------------------------------------|
B|-10-10---10---10-10---10---3-3---3---3-3---3---5-5---5---5-5---5---8-8---8---8-8---8----|
G|-11-11---11---11-11---11---3-3---3---3-3---3---5-5---5---5-5---5---7-7---7---7-7---7----|
D|-----------------------------------------------7-7---7---7-7---7---9-9---9---9-9---9----|
A|----------------------------------------------------------------------------------------|
E|----------------------------------------------------------------------------------------|


Pre-Chorus:- Listen to the chord changes well. (not so sure about the beginning though)

e|-------7------------7--------8---------10---|
B|-----8---8-----8----7--------8---------10---|
G|-9-9-------9-9---9--7--------9---------11---|
D|-9------------------9--------10--------12---|
A|-7------------------9--------10--------12---|
E|--------------------7--------8---------10---|


Chorus:-

e|-3--3-3--3-3-3--3--3-3--3-3-3--10--10-10--10-10-10--10--10-10--10-10-10-
B|-3--3-3--3-3-3--3--3-3--3-3-3--10--10-10--10-10-10--10--10-10--10-10-10-
G|-4--4-4--4-4-4--4--4-4--4-4-4--11--11-11--11-11-11--11--11-11--11-11-11-
D|-5--5-5--5-5-5--5--5-5--5-5-5--12--12-12--12-12-12--12--12-12--12-12-12-
A|-5--5-5--5-5-5--5--5-5--5-5-5--12--12-12--12-12-12--12--12-12--12-12-12-
E|-3--3-3--3-3-3--3--3-3--3-3-3--10--10-10--10-10-10--10--10-10--10-10-10-
   d  d d  d u d  d  d d  d u d  d   d  d   d  u  d   d   d  d   d  u  d

-8---8--8---8--8--8---8---8--8---8--8--8---8---8--8---8--8--8---8---8--8---8--8--8----|
-10--10-10--10-10-10--10--10-10--10-10-10--8---8--8---8--8--8---8---8--8---8--8--8----|
-10--10-10--10-10-10--10--10-10--10-10-10--9---9--9---9--9--9---9---9--9---9--9--9----|
-10--10-10--10-10-10--10--10-10--10-10-10--10--10-10--10-10-10--10--10-10--10-10-10---|
-8---8--8---8--8--8---8---8--8---8--8--8---10--10-10--10-10-10--10--10-10--10-10-10---|
-------------------------------------------8---8--8---8--8--8---8---8--8---8--8--8----|
 d   d  d   d  u  d   d   d  d   d  u  d   d   d  d   d  u  d   d   d  d   d  u  d

Solo:-
The solo in the other tab is pretty much right. Plus its too confusing for me.

Song Structure:-

Intro x 1
Verse x 3
Pre-Chorus x 1
Chorus x 2
Verse x 2
Pre-Chorus x 1
Chorus x 2
Solo
Pre-Chorus x 1
Chorus x 3

Thats all. Enjoy!
            
Hard to play? Try these video lessons and learn fast. | Correct




comments powered by Disqus
↑ Back to top | Tablatures and chords are parodies/interpretations of the original songs. You may use it for private study, scholarship, research or language learning purposes only