» » »

Hot Hot Heat, Middle Of Nowhere Tabs (ver.4)

Artists:  A B C D E F G H I J K L M N O P Q R S T U V W X Y Z # 

Middle Of Nowhere Tabs (ver.4)

Hot Hot Heat Tabs
 Rating:
4/5 (4 votes)
Middle Of Nowhere lessons Tabs too difficult? Try these video lessons and learn fast
1
                Middle of Nowhere - Hot Hot Heat

Notes: Pretty easy song, the solo gets tricky though. I'm still a bit rough on it, but 
generally there. Yes the chords are a bit funky in the intro/verse, but trust me, that's 
it's played.

Intro/Verse:

      D     C    Am   G
e|---10--------------------|
B|---10-----8----5----8----|
G|---11-----9----5----7----|
D|---------10----7----9----|
A|-------------------------|
E|-------------------------|

Pre Chorus:

                 Em
But you're waiting at the door
           Bm
where everybody's hanging out just like they hung out before
        C
You didn't have to do it but you did it to say
               D
That you didn't have to do it but you would anyway

Chorus:

     G                      D
To give you something to go on
            F                       C
when I go off back to the middle of nowhere


Solo:
                x3
e|-x--x-x-x-|-8-7-x-|--15-15-15-15-\13-13-13-13--|
B|-8--8-8-8-|-8-8-8-|--13-13-13-13-\12-12-12-12--|
G|-0--0-0-0-|-0-0-0-|---0--0--0--0---0--0--0--0--|
D|----------|-------|----------------------------|
A|----------|-------|----------------------------|
E|----------|-------|----------------------------|

                               x3                        x4
e|-\12-12-12-12-\10-10-10--|-10-8-15-|--15-15-15-15-|-15----15----|
B|-\10-10-10-10-\8--8--8---|-8--8-12-|--12-12-12-12-|----15----15-|
G|--0--0--0--0---0--0--0---|-0--0-0--|---0--0--0--0-|-------------|
D|-------------------------|---------|--------------|-------------|
A|-------------------------|---------|--------------|-------------|
E|-------------------------|---------|--------------|-------------|
            
Submit corrections

comments powered by Disqus
↑ Back to top | Hot Hot Heat Tabs for Middle Of Nowhere. Lyrics for acoustic guitar and electric guitar. 1 Tablatures and chords are parodies/interpretations of the original songs. You may use it for private study, scholarship, research or language learning purposes only