» » »

Le Le Low Bass tabs (ver.1)

Artists:  A B C D E F G H I J K L M N O P Q R S T U V W X Y Z # 

Le Le Low Bass tabs (ver.1)

Hot Hot Heat
Rating:
0/5 (0 votes)

Hard to play? Try these video lessons and learn fast.
                Such a great song.  I've tried my best to show the rhythm, but for the chorus
and a couple other parts you'll need to listen carefully to hear it.  Feel free
to hit up the email with corrections.

Rest x7 bars

Intro
G-----
D-----
A-----
E---0-


Verse                                                x2
G-------------------------------------------------------
D-------------------------------------------------------
A---7---10-5-5---5-7-------7-------7---10-5-5---5-7-----
E-----7--------------7---7---7---7---7--------------7-0-


Rest x1 bar


Verse x2

Interlude pt. 1            x2
G-----------------------9-----
D---6-7-7-9-7-6---7-7-7---7-7-
A-----------------------------
E-----------------------------


Interlude pt. 2
G-------------------------------------------------
D-------------------------------------------------
A-------------------------------------12-12-12-14-
E---0--0-5-5-5-5-0--0-5-5-5-5-/12--12-------------


Verse x2


Interlude pt. 3
G---------------
D-----9-------9-
A-----------6---
E---7-----7-----


Chorus x3
G----------------------------------------------
D----------------------------------------------
A--------------0--------0--3---3-2-3-2-3-2-3-2-
E---0--3-2-2-----3--2--------------------------


Chorus Fill
G---------------------2-4---2---4-----2-4-5---2-4-5-2-4-2-4-5-4-2-4---
D-------------------2-----2---2---2-2-------2-----------------------2-
A---3-2-3-2-3-2-3-2---------------------------------------------------
E---------------------------------------------------------------------


Bridge x3
G---------------------------------------
D---------------------------------------
A---------3--3-3--------------0--3----5-
E---0--0----------3--3--2--2--------2---


Rest x8 bars


Verse x1


Final Verse
G-------------------------------------------------------
D-------------------------------------------------------
A---7---10-5-5---5-7-------7-------7---10-5-5---5-7---7-
E-----7--------------7---7---7---7---7--------------7---
            
Hard to play? Try these video lessons and learn fast. | Correct




comments powered by Disqus
↑ Back to top | Tablatures and chords are parodies/interpretations of the original songs. You may use it for private study, scholarship, research or language learning purposes only