» » »

Who's Leading You Now? Bass tabs (ver.1)

Artists:  A B C D E F G H I J K L M N O P Q R S T U V W X Y Z # 

Who's Leading You Now? Bass tabs (ver.1)

Horrorpops
Rating:
0/5 (0 votes)

Tabs too difficult? Try these video lessons and learn fast.
                -------------------------------------------------------------------------------
-------------------------------------------------------------------------------


One of my all time favorite bands. Very easy song. Enjoy!  =]

CHORUS:
G|----------------------------------|
D|----------------------------------|
A|-0-0-0-0-3-3-3-3-8-8-8-8-5-5-5-5--|  X2
E|----------------------------------|

VERSE:
G|----------------------------------|
D|----------------------------------|
A|-----------------5-5-5-5-3-3-2-2--|  X5
E|-0-0-0-0-3-3-3-3------------------|

BREAKDOWN: ("Naive, Blind...)
G|----------------------------------|
D|----------------------------------|
A|-8-8-8-8-8-8-8-8-5-5-5-5-5-5-5-5--|
E|----------------------------------|

CHORUS X2

VERSE X4

CHORUS X2

BREAKDOWN X2

CHORUS X4

END ON:
G|-----|
D|-----|
A|-0~--|
E|-----|



| /  slide up
| \  slide down
| h  hammer-on
| p  pull-off
| ~  vibrato
| +  harmonic
| x  Mute note
===============================================================================
            
Tabs too difficult? Try these video lessons and learn fast.




comments powered by Disqus
↑ Back to top | Tablatures and chords are parodies/interpretations of the original songs. You may use it for private study, scholarship, research or language learning purposes only