>
 >
Where You Can't Follow

Where You Can't Follow Bass Tabs

Horrorpops - Where You Can't Follow chords, tabs, tablatures, lyrics

Guitar lessons | Add/correct | Request | Top 50 tabs Artists:  A B C D E F G H I J K L M N O P Q R S T U V W X Y Z 0-9

Where You Can't Follow Bass Tabs – Horrorpops

CD, Sheet music, Poster

Do you like Where You Can't Follow? Share with your friends now
Bass Tabs
#------------------------------------------------------------------------------##

                        WHERE YOU CAN'T FOLLOW (Bassline)
                            As recorded by HorrorPops
                       (From the 2005 Album BRING IT ON!)


Gtr I (E A D G) - 'Untitled'

 Intro
  Fast Psychobilly Q=235
 4/4
  Gtr I
  Q  Q  Q  Q    Q  Q  Q  Q    Q  Q  Q  Q    Q  Q  Q  Q
|-------------|-------------|-------------|--------------|
|-6--6--6--6--|-6--6--6--6--|-5--5--5--5--|-5--5--5--5---|
|-------------|-------------|-------------|--------------|
|-------------|-------------|-------------|--------------|


  Q  Q  Q  Q    Q  Q  Q  Q    Q  Q  Q  Q    Q  Q  Q  Q
|-------------|-------------|-------------|-------------|
|-6--6--6--6--|-6--6--6--6--|-5--5--5--5--|-5--5--5--5--|
|-------------|-------------|-------------|-------------|
|-------------|-------------|-------------|-------------|


   Chorus
    Q  Q  Q  Q    Q  Q  Q  Q    Q  Q  Q  Q    Q  Q  Q  Q
||--------------|-------------|-------------|--------------|
||o-------------|-------------|-------------|--------------|
||o-7--7--7--7--|-7--7--7--7--|-5--5--5--5--|-5--5--5--5---|
||--------------|-------------|-------------|--------------|


  Q  Q  Q  Q    Q  Q  Q  Q    Q  Q  Q  Q    Q  Q  Q  Q
|-------------|-------------|-------------|--------------||
|-------------|-------------|-------------|-------------o||
|-------------|-------------|-------------|-------------o||
|-5--5--5--5--|-5--5--5--5--|-7--7--7--7--|-7--7--7--7---||


 Verse
  $
  Q  Q  Q  Q    Q  Q  Q  Q    Q  Q  Q  Q    Q  Q  Q  Q
|-------------|-------------|-------------|-------------|
|-------------|-------------|-------------|-------------|
|-3--3--3--3--|-3--3--3--3--|-2--2--2--2--|-2--2--2--2--|
|-------------|-------------|-------------|-------------|


  Q  Q  Q  Q    Q  Q  Q  Q    Q  Q  Q  Q    Q  Q  Q  Q
|-------------|-------------|-------------|-------------|
|-------------|-------------|-------------|-------------|
|-7--7--7--7--|-7--7--7--7--|-7--7--7--7--|-7--7--7--7--|
|-------------|-------------|-------------|-------------|


  Q  Q  Q  Q    Q  Q  Q  Q    Q  Q  Q  Q    Q  Q  Q  Q
|-------------|-------------|-------------|-------------|
|-------------|-------------|-------------|-------------|
|-3--3--3--3--|-3--3--3--3--|-2--2--2--2--|-2--2--2--2--|
|-------------|-------------|-------------|-------------|


  Q  Q  Q  Q    Q  Q  Q  Q    Q  Q  Q  Q    Q  Q  Q  Q
|-------------|-------------|-------------|-------------|
|-------------|-------------|-------------|-------------|
|-------------|-------------|-------------|-------------|
|-0--0--0--0--|-0--0--0--0--|-0--0--0--0--|-0--0--0--0--|


  Q  Q  Q  Q    Q  Q  Q  Q    Q  Q  Q  Q    Q  Q  Q  Q
|-------------|-------------|-------------|-------------|
|-------------|-------------|-------------|-------------|
|-3--3--3--3--|-3--3--3--3--|-2--2--2--2--|-2--2--2--2--|
|-------------|-------------|-------------|-------------|


  Q  Q  Q  Q    Q  Q  Q  Q    Q  Q  Q  Q    Q  Q  Q  Q
|-------------|-------------|-------------|-------------|
|-------------|-------------|-------------|-------------|
|-------------|-------------|-------------|-------------|
|-0--0--0--0--|-0--0--0--0--|-0--0--0--0--|-0--0--0--0--|


  Q  Q  Q  Q    Q  Q  Q  Q    Q  Q  Q  Q    Q  Q  Q  Q
|-------------|-------------|-------------|-------------|
|-------------|-------------|-------------|-------------|
|-3--3--3--3--|-3--3--3--3--|-5--5--5--5--|-5--5--5--5--|
|-------------|-------------|-------------|-------------|


  Q  Q  Q  Q    Q  Q  Q  Q    Q  Q  Q  Q    Q  Q  Q  Q
|-------------|-------------|-------------|-------------|
|-------------|-------------|-------------|-------------|
|-------------|-------------|-------------|-------------|
|-5--5--5--5--|-5--5--5--5--|-5--5--5--5--|-5--5--5--5--|


   Chorus
    Q  Q  Q  Q    Q  Q  Q  Q    Q  Q  Q  Q    Q  Q  Q  Q
||--------------|-------------|-------------|--------------|
||o-------------|-------------|-------------|--------------|
||o-7--7--7--7--|-7--7--7--7--|-5--5--5--5--|-5--5--5--5---|
||--------------|-------------|-------------|--------------|


                                              To Coda
  Q  Q  Q  Q    Q  Q  Q  Q    Q  Q  Q  Q    Q  Q  Q  Q
|-------------|-------------|-------------|--------------||
|-------------|-------------|-------------|-------------o||
|-------------|-------------|-------------|-------------o||
|-5--5--5--5--|-5--5--5--5--|-7--7--7--7--|-7--7--7--7---||


   Pre-Verse
                                           D.S. al Coda
    Q  Q  Q  Q    Q  Q  Q  Q    Q  Q  Q  Q    Q  Q  Q  Q
||--------------|-------------|-------------|---------------||
||o-6--6--6--6--|-6--6--6--6--|-5--5--5--5--|-5--5--5--5---o||
||o-------------|-------------|-------------|--------------o||
||--------------|-------------|-------------|---------------||


   Breakdown
    &
    Q  Q  Q  Q    Q  Q  Q  Q    Q  Q  Q  Q    Q  Q  Q  Q    4x
||--------------|-------------|-------------|---------------||
||o-6-----6--6--|-6-----6--6--|-5-----5--5--|-5-----5--5---o||
||o-------------|-------------|-------------|--------------o||
||--------------|-------------|-------------|---------------||


   Out-Chorus
    Q  Q  Q  Q    Q  Q  Q  Q    Q  Q  Q  Q    Q  Q  Q  Q
||--------------|-------------|-------------|--------------|
||o-------------|-------------|-------------|--------------|
||o-7--7--7--7--|-7--7--7--7--|-5--5--5--5--|-5--5--5--5---|
||--------------|-------------|-------------|--------------|


  Q  Q  Q  Q    Q  Q  Q  Q    Q  Q  Q  Q    Q  Q  Q  Q   4x
|-------------|-------------|-------------|--------------||
|-------------|-------------|-------------|-------------o||
|-------------|-------------|-------------|-------------o||
|-5--5--5--5--|-5--5--5--5--|-7--7--7--7--|-7--7--7--7---||


  W          +W           +W           +W
|----------|------------|------------|--------*|
|----------|------------|------------|--------*|
|-7--------|-(7)--------|-(7)--------|-(7)----*|
|----------|------------|------------|--------*|


Duration Legend
---------------
W - whole; H - half; Q - quarter; E - 8th; S - 16th; T - 32nd; X - 64th; a - acciaccatura
+ - note tied to previous; . - note dotted; .. - note double dotted
Uncapitalized letters represent notes that are staccato (1/2 duration)
Irregular groupings are notated above the duration line
Duration letters will always appear directly above the note/fret number it represents the
duration for.  Duration letters with no fret number below them represent rests.  Multi-
bar rests are notated in the form Wxn, where n is the number of bars to rest for.  Low
melody durations appear below the staff

Tablature Legend
----------------
 h   - hammer-on
 p   - pull-off
 b   - bend
 pb  - pre-bend
 r   - bend release (if no number after the r, then release immediately)
 /\  - slide into or out of (from/to "nowhere")
 s   - legato slide
 S   - shift slide
  - natural harmonic
[n]  - artificial harmonic
n(n) - tapped harmonic
 ~   - vibrato
 tr  - trill
 T   - tap
 TP  - trem. picking
 PM  - palm muting
\n/  - tremolo bar dip; n = amount to dip
 \n  - tremolo bar down
 n/  - tremolo bar up
/n\  - tremolo bar inverted dip
 =   - hold bend; also acts as connecting device for hammers/pulls
 <>  - volume swell (louder/softer)
 x   - on rhythm slash represents muted slash
 o   - on rhythm slash represents single note slash

Misc Legend
-----------
 |  - bar
||  - double bar
||o - repeat start
o|| - repeat end
*|  - double bar (ending)
 :  - bar (freetime)
 $  - Segno
 &  - Coda
Tempo markers -  = BPM(8/16=s8/s16), where s8 = swing 8ths, s16 = swing 16ths


***************************************************************************************
***************************************************************************************





Comments


Popular Horrorpops tabs & chords
Julia Bass Tabs
Where They Wander Chords
Drama Queen 1 Tabs
Drama Queen 2 Tabs
Missfit Tabs
Private Hall Of Shame Tabs
Psychobitches Outta Hell Tabs
S.O.B Tabs
Undefeated Tabs
Walk Like A Zombie Tabs


Song lyrics



↑ Back to top | Tablatures and chords are parodies/interpretations of the original songs. You may use it for private study, scholarship, research or language learning purposes only
© 2014 AZChords.com Contact us | Privacy policy | DMCA | Add/correct tabs | Request tabs | Top 50 tabs