» » »

Horrorpops, Thelma And Louise Bass tabs (ver.1)

Artists:  A B C D E F G H I J K L M N O P Q R S T U V W X Y Z # 

Thelma And Louise Bass tabs (ver.1)

Horrorpops Tabs
Rating:
5/5 (1 vote)
Thelma And Louise lessons Tabs too difficult? Try these video lessons and learn fast
                ============================================================================
====================Thelma And Louise- The HorrorPops=======================
 =========================Kiss Kiss Kill Kill===============================
============================================================================


Tuning: Standard
I'm pretty sure theres no bass at the first lil bit, but it starts in just a few seconds 
the song. P.S. All the notes are sticoto!
Verse
G|-------------------------------------------------------------------|x6
D|-------------------------------------------------------------------|
A|-------------------------------------------------------------------|
E|-5-5-5-5-5-5-5-5-6-6-6-6-6-6-6-6-1-1-1-1-1-1-1-1-0-0-0-0-0-0-0-0---|

Prechorus
G|------------------------------------------------------------------------|
D|------------------------------------------------------------------------|
A|------------------------------------------------------------------------|
E|-1-1-1-1-1-1-1-1-3-3-3-3-3-3-3-3-5-5-5-5-5-5-5-5-5-5-5-5-5-5-5-5--------|

G|------------------------------------------------------------------------|
D|------------------------------------------------------------------------|
A|------------------------------------------------------------------------|
E|-1-1-1-1-1-1-1-1-3-3-3-3-3----------------------------------------------|

Chorus
G|-------------------------------------------------------------------|x2
D|-------------------------------------------------------------------|
A|-------------------------------------------------3-3-3-3-2-2-2-2---|
E|-5-5-5-5-5-5-5-5-1-1-1-1-1-1-1-1-3-3-3-3-3-3-3-3-------------------|
Pre verse
G|-------------------------------------------------------------------------|
D|-------------------------------------------------------------------------|
A|-------------------------------------------------------------------------|
E|-0-0-0-0-0-0-0-0-0-0-0-0-0-0-0-0-----------------------------------------|

Verse
G|--------------------------------------------------------------------|x2
D|--------------------------------------------------------------------|
A|--------------------------------------------------------------------|
E|-5-5-5-5-5-5-5-5-6-6-6-6-6-6-6-6-1-1-1-1-1-1-1-1-0-0-0-0-0-0-0-0----|

Pre Chorus
G|-------------------------------------------------------------------------|
D|-------------------------------------------------------------------------|
A|-------------------------------------------------------------------------|
E|-1-1-1-1-1-1-1-1-3-3-3-3-3-3-3-3-5-5-5-5-5-5-5-5-5-5-5-5-5-5-5-5---------|

G|-------------------------------------------------------------------------|
D|-------------------------------------------------------------------------|
A|-------------------------------------------------------------------------|
E|-1-1-1-1-1-1-1-1-3-3-3-3-3-----------------------------------------------|

Chorus
G|--------------------------------------------------------------------|x2
D|--------------------------------------------------------------------|
A|--------------------------------------------------3-3-3-3-2-2-2-2---|
E|-5-5-5-5-5-5-5-5-1-1-1-1-1-1-1-1-3-3-3-3-3-3-3-3--------------------|

Pre verse
G|-------------------------------------------------------------------------|
D|-------------------------------------------------------------------------|
A|-------------------------------------------------------------------------|
E|-0-0-0-0-0-0-0-0-0-0-0-0-0-0-0-0-----------------------------------------|

Bridge
G|--------------------------------------------------------------------|x4
D|--------------------------------------------------------------------|
A|--------------------------------------------------------------------|
E|-0-0-0-0-0-0-0-0-1-1-1-1-1-1-1-1------------------------------------|

Chorus
G|--------------------------------------------------------------------|x4
D|--------------------------------------------------------------------|
A|--------------------------------------------------3-3-3-3-2-2-2-2---|
E|-5-5-5-5-5-5-5-5-1-1-1-1-1-1-1-1-3-3-3-3-3-3-3-3--------------------|

End on
G-------|
D-------|
A-------|
E-0-----|

Thats the whole thing, not at all challenging, I've tabbed most of the songs off the 
album and will put them up later.


| /  slide up
| \  slide down
| h  hammer-on
| p  pull-off
| ~  vibrato
| +  harmonic
| x  Mute note
============================================================================
            

comments powered by Disqus
↑ Back to top | Horrorpops Bass for Thelma And Louise. Lyrics for acoustic guitar and electric guitar. Tablatures and chords are parodies/interpretations of the original songs. You may use it for private study, scholarship, research or language learning purposes only