» » »

Horrorpops, S.O.B Tabs (ver.1)

Artists:  A B C D E F G H I J K L M N O P Q R S T U V W X Y Z # 

S.O.B Tabs (ver.1)

Horrorpops Tabs
 Rating:
4/5 (4 votes)
S.O.B lessons Tabs too difficult? Try these video lessons and learn fast
1
                This is my first tab EVER and I am not a fantastic guitarist yet but I have done my best 
tab this song so I hope you like it (^_^)

"I wanna do wrong"
Guitar 1 isn't very loud so it was hard to tab. It isn't perfect but it is very close.
"I want you gone"
Guitar 1: (Verse 1)
e----7---|   (x2)
B---7----|
G------7-|
D-7------|
A-5------|
E-5------|

e-----5---| (x2)
B----5----|
G-------5-|
D-5-------|
A-3-------|
E-3-------|

e----7---------8------|
B---7-7------8--------|
G------7---------8----|
D-7-------8-----------|
A-5-------6-----------|
E-5-------6-----------|


(00:19)
Guitar 2: (Verse 1)
e-------------------------------|
B-------------------------------|
G--7-6-4--------4-6~--6-6p5h6---|
D--------4~----4----------------|
A-------------------------------|
E-------------------------------|

Chorus: ("Eye, for an eye")
Guitar 1:
e----7---|   (x2)
B---7----|
G------7-|
D-7------|
A-5------|
E-5------|

e-----5---| (x2)
B----5----|
G-------5-|
D-5-------|
A-3-------|
E-3-------|

e----7---------8------|
B---7-7------8--------|
G------7---------8----|
D-7-------8-----------|
A-5-------6-----------|
E-5-------6-----------|

I will try and figure out the rest of it, I hope this helps (^_^). I have only been 
guitar for about a year so don't eat me! :P
            
Submit corrections

comments powered by Disqus
↑ Back to top | Horrorpops Tabs for S.O.B. Lyrics for acoustic guitar and electric guitar. 1 Tablatures and chords are parodies/interpretations of the original songs. You may use it for private study, scholarship, research or language learning purposes only