» » »

Horrorpops, Hit 'n' Run Bass tabs (ver.1)

Artists:  A B C D E F G H I J K L M N O P Q R S T U V W X Y Z # 

Hit 'n' Run Bass tabs (ver.1)

Horrorpops Tabs
 Rating:
4/5 (4 votes)
Hit 'n' Run lessons Tabs too difficult? Try these video lessons and learn fast
                sorry I made a typo on the song title. It's:

++++++++++++
Hit 'N' Run
Horrorpops
++++++++++++

Intro/Verse 1:
G|----------------------------------------------------| 
D|----------------------------------------------------| 
A|------------------7777777777777777------------------| 
E|-8888888888888888------------------6666666666666666-| 

 |-----------------------|
 |-----------------------|
 |-88888888-77777--------|
 |----------------7-8-10-|

Chorus (x2):
G|-------------------------------------------------------------------|
D|-------------------------------------------------------------------|
A|------------------777777777777777-888888888888888------------------|
E|-5555555555555555---------------------------------1010101010101010-|

 |-----------|
 |-----------|
 |-----------|
 |-999999999-|

Verse 2:
G|----------------------------------------------------|
D|----------------------------------------------------|
A|------------------7777777777777777–-7-7-7-7-7-7-7-7-|
E|-8888888888888888------------------6-6-6-6-6-6-6-6--|

 |-----------------------|
 |-----------------------|
 |-88888888-77777--------|
 |----------------7-8-10-|

 |----------------------------------------------------| 
 |----------------------------------------------------| 
 |------------------7777777777777777------------------| 
 |-8888888888888888------------------6666666666666666-| 

 |-----------------------|
 |-----------------------|
 |-88888888-77777--------|
 |----------------7-8-10-|

[Chorus x2]

Bridge:
G|----------------------------------------------------------------------||
D|----------------------------------------------------------------------||
A|-5555555555555555-----------------------------------------------------||
E|------------------5555555555555555-3333333333333333-66666666-88888888-||

Chorus/Outro:
G|-------------------------------------------------------------------|
D|-------------------------------------------------------------------|
A|------------------777777777777777-888888888888888------------------|
E|-5555555555555555---------------------------------1010101010101010-|

 |-----------|
 |-----------|
 |-----------|
 |-999999999-|

G|------------------------------------------------------------|
D|------------------------------------------------------------|
A|---------------------------10101010101010101010101010101010-|
E|-55/8-5-55/8-5-55/8-5-55/8----------------------------------|

 |----------------------------------------------------|
 |----------------------------------------------------|
 |----------------------------------------------------|
 |-10101010101010101010101010101010-99999999-9----7~~-|
            
Submit corrections

comments powered by Disqus
↑ Back to top | Horrorpops Bass for Hit 'n' Run. Lyrics for acoustic guitar and electric guitar. Tablatures and chords are parodies/interpretations of the original songs. You may use it for private study, scholarship, research or language learning purposes only