» » »

Horrorpops, Boot2boot Tabs (ver.1)

Artists:  A B C D E F G H I J K L M N O P Q R S T U V W X Y Z # 

Boot2boot Tabs (ver.1)

Horrorpops Tabs
Rating:
4/5 (2 votes)
Hard to play? Try these video lessons and learn fast.
                -------------------------------------------------------------------------------
-------------------------------------------------------------------------------

Tuning: Standard

Intro
e|--------------------|
B|--------------------|
G|--5/7--3/5----------|
D|--5/7--3/5--3--3/5--|
A|--3/5--1/3--3--3/5--|
E|------------1--1/3--|


e|------------------------------------------------------------------|
B|-10-8-6-5-3--10-8-6-5-6-5-10-8-6-5----10-8-6-10-8-6-10-8-6-8-6-5-5|
G|-----------------------------------5------------------------------|
D|------------------------------------------------------------------|
A|------------------------------------------------------------------|
E|------------------------------------------------------------------|


Verse
e|-----------------------------------------------------|
B|-----------------------------------------------------|
G|----------------33333333-----------------------------|
D|----77777777----33333333----33333333-----55555555----|
A|----77777777----11111111----33333333-----55555555----|
E|----55555555----------------11111111-----33333333----|


Chorus
e|----------------------------------------------------------------------|
B|----------------------------------------------------------------------|
G|--7777777777777777-5555555555555555-----------------------------------|
D|--7777777777777777-5555555555555555-3333333333333333-5555555555555555-|
A|--5555555555555555-3333333333333333-3333333333333333-5555555555555555-|
E|------------------------------------1111111111111111-3333333333333333-|


| /  slide up
| \  slide down
| h  hammer-on
| p  pull-off
| ~  vibrato
| +  harmonic
| x  Mute note
===============================================================================
            

comments powered by Disqus
↑ Back to top | Horrorpops Tabs for Boot2boot. Lyrics for acoustic guitar and electric guitar. Tablatures and chords are parodies/interpretations of the original songs. You may use it for private study, scholarship, research or language learning purposes only