» » »

Run Right Through Tabs (ver.1)

Artists:  A B C D E F G H I J K L M N O P Q R S T U V W X Y Z # 

Run Right Through Tabs (ver.1)

Hometown Hero
Rating:
0/5 (0 votes)

Hard to play? Try these video lessons and learn fast.
                Ok, I did this all myself by ear so its probably not all correct,
but its my first try without other tabs to base it on so give me a break.
I don't know if the intro and verse are all correct,
but everything else is 99% right I think.
If anyone has any corrections or other versions of this tab please let me know.
It shouldn't be too hard to follow as its all organized, 
just go along with the order i have.

Play everything with heavy distortion except for post chorus part

The tuning is Drop Db as like other HTH songs. (Db Ab Db Gb Bb eb)

******************************************************************************


Intro 
x2 
-----------------|------------------|-----------------|-----------------------
-----------------|------------------|-----------------|-----------------------
-----------------|------------------|-----------------|-----------------------
--0-9-9--0--4-2--|--0-7-7--0--4-2---|--0-9-9--0--4-2--|--0-7-7--0--2-4--------
--0-9-9--0--4-2--|--0-7-7--0--4-2---|--0-9-9--0--4-2--|--0-7-7--0--2-4--------
--0-9-9--0--4-2--|--0-7-7--0--4-2---|--0-9-9--0--4-2--|--0-7-7--0--2-4--------
  

Verse 1
x2
-------------------|--------------------|--------------------|----------------
-------------------|--------------------|--------------------|----------------
--------12b13p10---|-----------12b13p10-|-----------12b13p10-|----------------
--9-9--------------|---0-7--7-----------|---0-9--9-----------|-0-7-7-0-4-2--0-
--9-9--------------|---0-7--7-----------|---0-9--9-----------|-0-7-7-0-4-2--0-
--9-9--------------|---0-7--7-----------|---0-9--9-----------|-0-7-7-0-4-2--0-
     (for these bends just quickly bend and release)                      
x2
-----------------|------------------|-----------------|-----------------------
-----------------|------------------|-----------------|-----------------------
-----------------|------------------|-----------------|-----------------------
--0-9-9--0--4-2--|--0-7-7--0--4-2---|--0-9-9--0--4-2--|--0-7-7--0--2-4--------
--0-9-9--0--4-2--|--0-7-7--0--4-2---|--0-9-9--0--4-2--|--0-7-7--0--2-4--------
--0-9-9--0--4-2--|--0-7-7--0--4-2---|--0-9-9--0--4-2--|--0-7-7--0--2-4--------

                                                        
Chorus 1  
x1
|-------2----------------------------------------|----------------------------
|-------3----------------------------------------|----------------------------
|-------2---------------------------4--4-4-4-4---|----------------------------
|---0---0-0-0-0-0---2---2-2-2-2-2---4--4-4-4-4---|--0-2-4-5--4-2-0------------
|---0---0-0-0-0-0---2---2-2-2-2-2---2--2-2-2-2---|--0-2-4-5--4-2-0------------
|---0---0-0-0-0-0---2---2-2-2-2-2----------------|--0-2-4-5--4-2-0------------
|                                                                              
|
|------2----------------------------------------------------------------------
|------3----------------------------------------------------------------------
|------2----------------------------------------------------------------------
|---0--0-0-0-0---2--2-2-2-2---4--4--4--4--4--4--4--4--------------------------
|---0--0-0-0-0---2--2-2-2-2---4--4--4--4--4--4--4--4--------------------------
|---0--0-0-0-0---2--2-2-2-2---4--4--4--4--4--4--4--4--------------------------
                                                                              


Post Chorus (light distortion)
x3
(listen for rhythm and exact number of strums)
---2--2-2-2-2-----------------------------------------------------------------
---3--3-3-3-3-----------------------------------------------------------------
---2--2-2-2-2------------------4--4-4-4-4-4-4-4-4-----------------------------
---0--0-0-0-0----2--2-2-2-2----4--4-4-4-4-4-4-4-4-----------------------------
---0--0-0-0-0----2--2-2-2-2----2--2-2-2-2-2-2-2-2-----------------------------
---0--0-0-0-0----2--2-2-2-2---------------------------------------------------
                                                                              
x1
---2--2-2-2-2-----------------------------------------------------------------
---3--3-3-3-3-----------------------------------------------------------------
---2--2-2-2-2-----------------------------------------------------------------
---0--0-0-0-0---2--2-2-2-2---4---4---4--4--4-4-4-4----------------------------
---0--0-0-0-0---2--2-2-2-2---4---4---4--4--4-4-4-4----------------------------
---0--0-0-0-0---2--2-2-2-2---4---4---4--4--4-4-4-4----------------------------


Intro
x2 
-----------------|------------------|-----------------|-----------------------
-----------------|------------------|-----------------|-----------------------
-----------------|------------------|-----------------|-----------------------
--0-9-9--0--4-2--|--0-7-7--0--4-2---|--0-9-9--0--4-2--|--0-7-7--0--2-4--------
--0-9-9--0--4-2--|--0-7-7--0--4-2---|--0-9-9--0--4-2--|--0-7-7--0--2-4--------
--0-9-9--0--4-2--|--0-7-7--0--4-2---|--0-9-9--0--4-2--|--0-7-7--0--2-4--------

  
                                                                          
Verse 2
x2
-------------------|--------------------|--------------------|----------------
-------------------|--------------------|--------------------|----------------
--------12b13p10---|-----------12b13p10-|-----------12b13p10-|----------------
--9-9--------------|---0-7--7-----------|---0-9--9-----------|-0-7-7-0-4-2--0-
--9-9--------------|---0-7--7-----------|---0-9--9-----------|-0-7-7-0-4-2--0-
--9-9--------------|---0-7--7-----------|---0-9--9-----------|-0-7-7-0-4-2--0-



Chorus 2
x3
(slightly different rhythm on third time)
-------2----------------------------------------|-----------------------------
-------3----------------------------------------|-----------------------------
-------2---------------------------4--4-4-4-4---|-----------------------------
---0---0-0-0-0-0---2---2-2-2-2-2---4--4-4-4-4---|--0-2-4-5--4-2-0-------------
---0---0-0-0-0-0---2---2-2-2-2-2---2--2-2-2-2---|--0-2-4-5--4-2-0-------------
---0---0-0-0-0-0---2---2-2-2-2-2----------------|--0-2-4-5--4-2-0-------------
                                                                             
x1
------2-----------------------------------------------------------------------
------3-----------------------------------------------------------------------
------2-----------------------------------------------------------------------
---0--0-0-0-0---2--2-2-2-2---4--4--4--4--4--4--4--4---------------------------
---0--0-0-0-0---2--2-2-2-2---4--4--4--4--4--4--4--4---------------------------
---0--0-0-0-0---2--2-2-2-2---4--4--4--4--4--4--4--4---------------------------



Post Chorus 2 (clean, lowered volume, mostly bass)
x2
(listen for rhythm and exact number of strums)
---2--2-2-2-2-----------------------------------------------------------------
---3--3-3-3-3-----------------------------------------------------------------
---2--2-2-2-2----4--4-4-4-4----4--4-4-4-4-4-4-4-4-----------------------------
---0--0-0-0-0----2--2-2-2-2----4--4-4-4-4-4-4-4-4-----------------------------
---0--0-0-0-0----2--2-2-2-2----2--2-2-2-2-2-2-2-2-----------------------------
---0--0-0-0-0----2--2-2-2-2---------------------------------------------------



Bridge
x1
|--xx-x--------------------------------------------------------------
|--xx-x--------------------------------------------------------------
|--xx-x----------------------7-7-7-7-7-7-7-7-7-7---------------------
|--xx-x---2-2-2-2-2-2-2-2----x-x-x-x-x-x-x-x-x-x---------------------
|--xx-x---2-2-2-2-2-2-2-2----5-5-5-5-5-5-5-5-5-5---------------------
|--xx-x---2-2-2-2-2-2-2-2--------------------------------------------
| (rake)
|
|--------------------------------------------------------------------
|--------------------------------------------------------------------
|-----------------------7-7-7-7-7-7--7-9-11-12-----------------------
|----2-2-2-2-2-2-2-2----x-x-x-x-x-x--x-x-x--x------------------------
|----2-2-2-2-2-2-2-2----5-5-5-5-5-5--5-7-9--10-----------------------
|----2-2-2-2-2-2-2-2-------------------------------------------------
|
|
|--------------------------------------------------------------------
|--------------------------------------------------------------------
|------------------------7-7-7-7-7-7-7-7-7-7-------------------------
|---2--2-2-2-2--2-2-2----x-x-x-x-x-x-x-x-x-x-------------------------
|---2--2-2-2-2--2-2-2----5-5-5-5-5-5-5-5-5-5-------------------------
|---2--2-2-2-2--2-2-2------------------------------------------------
|
|
|--------------------------------------------------------------------
|--------------------------------------------------------------------
|--------------------------------------------------------------------
|---2--2-2-2-2-2-2-2---4--4--4--4--4--4--4--4------------------------
|---2--2-2-2-2-2-2-2---4--4--4--4--4--4--4--4------------------------
|---2--2-2-2-2-2-2-2---4--4--4--4--4--4--4--4------------------------



Outro
x3
---------------------------------------------|----------------------
---------------------------------------------|----------------------
---------------------------------4--4-4-4----|----------------------
---0---0-0-0-0----2---2-2-2-2----4--4-4-4----|---2-4-5--4-2---------
---0---0-0-0-0----2---2-2-2-2----2--2-2-2----|---2-4-5--4-2---------
---0---0-0-0-0----2---2-2-2-2----------------|---2-4-5--4-2---------
                                                                 
x1
----------------------------xx--------------------------------------
----------------------------xx--------------------------------------
---0--0-0-0-0---2--2-2-2-2--xx--4----------------\--0---------------
---0--0-0-0-0---2--2-2-2-2--xx--4~~~let ring~~~--\--0---------------
---0--0-0-0-0---2--2-2-2-2--xx--4----------------\--0---------------


and thats all
            
Hard to play? Try these video lessons and learn fast. | Correct




comments powered by Disqus
↑ Back to top | Tablatures and chords are parodies/interpretations of the original songs. You may use it for private study, scholarship, research or language learning purposes only