» » »

Temblando Tabs (ver.1)

Artists:  A B C D E F G H I J K L M N O P Q R S T U V W X Y Z # 

Temblando Tabs (ver.1)

Hombres G
Rating:
0/5 (0 votes)

Hard to play? Try these video lessons and learn fast.
                bueno la siguiente cancion sin comentarios !!! 

TqM mi Princesa !!! 



Intro
    A                   D      E     A                 D      E
E|--0--------------------------0--0--0------------------------0---------| 
B|---------------2--0-------3---------------2---2--0-------3------------|
G|-------2-2---------2---2----------------2----------2---2--------------|
D|-----2------2---------0------2--------2-----2--------0------2---------|
A|--0--------------------------------0----------------------------------|
E|-----------------------------0------------------------------0---------|

     A            D    E      A
Temblando, y con los ojos cerrados
     D            E           F#m   C#
el cielo esta nublado  y a lo lejos tu

    A       D         E    A
Hablando de lo que te ha pasado
   D    E          
intentando 




E|----------------------------------------------------------------------| 
B|-----------2--------2-------------2--------2-------------2------2-----|
G|--------2--2--------2----------2--2--------2----------2--2------2-----|
D|-----4----------------------4----------------------4------------------|
A|-----------------4----------------------4--------------------4--------|
E|--2-----------2--------2-1-----------1--------1-0---------0--------0--|
ordenar palabras        para no hacerme        tanto daño

E|--7-----5--4-----5------------------------5--9--12----0---------------| 
B|------------------------------------5--7--------------0----------0----|
G|-----5--------6------------------7--------------------1-------2-----1-|
D|------------------------------7-----------------------------2---------|
A|--6--------6-----6------5--5-----------------------------2------------|
E|------------------------------------------------------0---------------|
   tanto da~o           y yo sigo                    temblando            

    A                   D      E     A                 D      E
E|--0--------------------------0--0--0------------------------0---------| 
B|---------------2--0-------3---------------2---2--0-------3------------|
G|-------2-2---------2---2----------------2----------2---2--------------|
D|-----2------2---------0------2--------2-----2--------0------2---------|
A|--0--------------------------------0----------------------------------|
E|-----------------------------0------------------------------0---------|

      A       D     E     A
De la mano y con mucho cuidado
    D    E        F#m           C#
os besasteis en silencio donde no habia luz.
            A          D     E      A
Y me hace gracia tu manera   de  contarlo
     D    E             
como el cuenta que 

E|----------------------------------------------------------------------| 
B|-----------2--------2-------------2--------2-------------2------2-----|
G|--------2--2--------2----------2--2--------2----------2--2------2-----|
D|-----4----------------------4----------------------4------------------|
A|-----------------4----------------------4--------------------4--------|
E|--2-----------2--------2-1-----------1--------1-0---------0--------0--|
    ha pensado    que ha decidido           que seguimos 

E|--7-----5--4-----5------------------------5--9--12----0---------------| 
B|------------------------------------5--7--------------0----------0----|
G|-----5--------6------------------7--------------------1-------2-----1-|
D|------------------------------7-----------------------------2---------|
A|--6--------6-----6------5--5-----------------------------2------------|
E|------------------------------------------------------0---------------|
   siendo amigos          y yo estoy                   temblando.

      A        F#m            D              E    
y llorando, habia jurado que nunca iba a llorar.
      A              F#m    D               E    
Escuchando cada palabra que no quiero escuchar.
       A            F#m           D              E
Desgarrandome, suplicandote intentando hacerte recordar



 E|--2---14--12--10-------------| 
 B|--3---------------10---------|
 G|--2-------------------12--11-|
 D|--0--------------------------|
 A|-----------------------------|
 E|-----------------------------|
Pero tu,                    

E|--1---13--12--10-------------| 
B|--3---------------10---------|
G|--2-------------------12--11-|
D|--0--------------------------|
A|-----------------------------|
E|-----------------------------|
  solo dices:
          A
voy a colgar.
            
Hard to play? Try these video lessons and learn fast. | Correct




comments powered by Disqus
↑ Back to top | Tablatures and chords are parodies/interpretations of the original songs. You may use it for private study, scholarship, research or language learning purposes only