» » »

Hombres G, Lo Noto Tabs (ver.1)

Artists:  A B C D E F G H I J K L M N O P Q R S T U V W X Y Z # 

Lo Noto Tabs (ver.1)

Hombres G Tabs
Rating:
5/5 (1 vote)
Lo Noto lessons Tabs too difficult? Try these video lessons and learn fast
                Intro: F (Y dejando sonar)  

e|---1--------5---3---5---1------|---1--------5---3---5---1---|
B|---1----1------------------(1)-|---1----1-------------------|
G|---2---------------------------|---2------------------------|(BAJO con slide y entra en F)
D|---3---------------------------|---3------------------------|
A|---3---------------------------|---3------------------------|
E|---1---------------------------|---1------------------------|


    F5   E5         
Lo noto, sé que nos pasa algo 
D
aunque selles tus labios
A#5            C5                 F5
el mal rollito entre los dos lo noto.
E5
Tu siempre estas cansada 
D5
y nunca dices nada
A#5                C5               F5
pero sé que no estoy loco... y lo noto.
C5                    A#5             C5
Me esta matando poco a poco... y lo noto.

  F5    E5     
Lo noto me lo dicen tus ojos
D5
y esos besos tan flojos
A#5                 C5        F5
que dejan un sabor amargo y roto.
E5
Aunque tu me lo niegues 
D5
no queda mas que nieve
A#5              C5        F5
donde hubo calor y yo lo noto.
C5                         A#5              C5
Puedo ser un cabron pero no un tonto y lo noto.


CORO:  (Riff 1 se hace mientras el coro)

  Riff1  e|---5---8--6---5--|--(5)----5---8--6---5|
         B|-----------------|---------------------|
         G|-----------------|---------------------|
         D|-----------------|---------------------| Se repite varias veces.
         A|-----------------|---------------------|
         E|-----------------|---------------------|

C5                F5    C5     A#5
Noto que mi corazón no sé, no va
C5                F5        C5         A#5 
que las miradas se caen y que muere el mar
C5                     F5
tú y yo tenemos que hablar
C5          D5     C#5    C5    G5       A#5
porque ya se va acabando el aire entre nosotros...
     C5
y lo noto.

SOLO: (Sigue el mismo riff1 y los mismos tonos del coro C5-F5-C5-A#5)
 
e|------5---3---5---1------|------5---3---5---1---|
B|--1------------------(1)-|--1-------------------|
G|-------------------------|----------------------|
D|-------------------------|----------------------|
A|-------------------------|----------------------|
E|-------------------------|----------------------|
    

    F5    E5
Lo noto, noto que me esquivas 
D5
que evitas mis caricias
A#5         C5             F5              
que pones mala cara si te toco
E5
y yo que estoy perdido 
D5
no puedo hablar contigo
A#5        C5            F5
y cada día me siento mas solo.
C5                      A#5
Me voy hundiendo poco a poco.
C5                      A#5                  C5
luego se va la mierda entre nosotros... y lo noto


CORO:  (Riff 1 se hace mientras el coro)

  Riff1  e|---5---8--6---5--|--(5)----5---8--6---5|
         B|-----------------|---------------------|
         G|-----------------|---------------------|
         D|-----------------|---------------------| Se repite varias veces.
         A|-----------------|---------------------|
         E|-----------------|---------------------|

C5                F5    C5     A#5
Noto que mi corazón no sé, no va
C5                F5        C5         A#5 
que las miradas se caen y que muere el mar
C5                     F5
tú y yo tenemos que hablar
C5          D5     C#5    C5    G5       A#5
porque ya se va acabando el aire entre nosotros...
     C5
y lo noto.

SOLO: (Sigue el mismo riff1 y los mismos tonos del coro C5-F5-C5-A#5)
 
e|------5---3---5---1------|------5---3---5---1---|
B|--1------------------(1)-|--1-------------------|
G|-------------------------|----------------------|
D|-------------------------|----------------------|
A|-------------------------|----------------------|
E|-------------------------|----------------------|
            
Submit corrections

comments powered by Disqus
↑ Back to top | Hombres G Tabs for Lo Noto. Lyrics for acoustic guitar and electric guitar. Tablatures and chords are parodies/interpretations of the original songs. You may use it for private study, scholarship, research or language learning purposes only