» » »

Hombres G, Lo Noto Bass tabs (ver.1)

Artists:  A B C D E F G H I J K L M N O P Q R S T U V W X Y Z # 

Lo Noto Bass tabs (ver.1)

Hombres G Tabs
 Rating:
4/5 (4 votes)
Lo Noto lessons Tabs too difficult? Try these video lessons and learn fast
                -----------------------------------------------------------------|
-------------------------5-5-7-7---------------------------------|
-8-8-8-8-8-8-8-8-7-7-7-7---------8-8-8-8-8-8-8-8-8-8-8-8-8-8-8-8-|
-----------------------------------------------------------------|


 Lo noto         se que nos pasa algo   aunque selles tus labios
 Lo noto         me lo dicen tus ojos   y esos besos tan flojos
-----------------------------------------------------------------|
-----------------------------------------------------------------|
-8-8-8-8-8-8-8-8-7--7--7--7--7--7--7--7-5--5--5--5--5--5--5--5---|
-----------------------------------------------------------------|


 el mal rollito entre los dos lo noto        tu siempre estas ca.
 que dejan un sabor amargo y  roto            aunque tu me lo nie
-----------------------------------------------------------------|
-----------------------------------------------------------------|
-1--1--1--1-----3--3--3--3----8-8-8-8-8-8-8-8-7-7-7-7-7-7-7-7----|
-----------------------------------------------------------------|


y nunca dices nada pero se que no estoy loco y lo noto
no queda mas que nieve           donde hubo    calor y yo lo noto
------------------------------------------------------------------|
------------------------------------------------------------------|
-5-5-5-5-5-5-5-5---1--1--1--1--------3--3--3--3---1-1-1-1-1-1-1-1-|
------------------------------------------------------------------|

 me esta matando poco a poco            y lo noto
 puedo ser un cabron pero no un tonto   y lo noto
-----------------------------------------------------------------|
-----------------------------------------------------------------|
-3-3-3-3-3-3-3-3--------1-1-1-1-1-1-1-1-3-3-3-3-3-3-3-3----------|
-----------------------------------------------------------------|


 Noto que mi corazón      no se...  no va...    que las miradas
-----------------------------------------------------------------|
-----------------------------------------------------------------|
-3-3-3-3-3-3-3-3---------------------0-1-1-0-1-1-0-3-3-0-3-3-3-3-|
-----------------1-0-1-1-0-1-1-0-1-1-----------------------------|


se caen y que muere      el mar             tu y yo tenemos
-----------------------------------------------------------------|
-------------------------0-1-1-0-1-1-0-3-3-0-3-3-3-3-------------|
-----1-0-1-1-0-1-1-0-1-1-----------------------------------------|
-----------------------------------------------------------------|

que hablar   porque    ya se va acabando el aire entre nosotros
-----------------------------------------------------------------|
-----------------------------------------------------------------|
-1-1-0-1-1-0-3-3-0-3-3-3-3----5----4--------3--------------1-1-0-|
----------------------------------------------------3------------|


                y lo noto...
-----------------------------------------------------------------|
-----------------------------------------------------------------|
-1-1-0-1-1-0-1-1-0-3-3-0-3-3-0-3-3-3-3-3-3/8---------------------|
-----------------------------------------------------------------|

-----------------------------------------------------------------|
-----------------------------------------------------------------|
-8-8-8-8-8-8-8-8-7-7-7-7-7-7-7-7-5-5-5-5-5-5-5-5-1-1-1-1-1-1-1-1-|
-----------------------------------------------------------------|

-----------------------------------------------------------------|
-----------------------------------------------------------------|
-8-8-8-8-8-8-8-8-7-7-7-7-7-7-7-7-5-5-5-5-5-5-5-5-1-1-1-1-3-3-3-3-|
-----------------------------------------------------------------|


 Lo noto         noto que me esquivas   que evitas mis caricias
-----------------------------------------------------------------|
-----------------------------------------------------------------|
-8-8-8-8-8-8-8-8-7--7--7--7--7--7--7--7-5--5--5--5--5--5--5--5---|
-----------------------------------------------------------------|


 que pones mala cara si te toco            y yo que estoy perdido
 ------------------------------------------------------------------|
-------------------------------------------------------------------|
-1--1--1--1-----3--3--3--3----8-8-8-8-8-8-8-8-7-7-7-7-7-7-7-7------|
-------------------------------------------------------------------|


no puedo hablar contigo y cada dia me siento mas solo
------------------------------------------------------------------|
------------------------------------------------------------------|
-5-5-5-5-5-5-5-5---1--1--1--1--------3--3--3--3---1-1-1-1-1-1-1-1-|
------------------------------------------------------------------|

 me voy hundiendo poco a poco    todo se va a la mierda entre nos.
------------------------------------------------------------------|
------------------------------------------------------------------|
-3-3-3-3-3-3-3-3--------1-1-1-1-1-1-1-1-3-3-3-3-3-3-3-3---1-1-1-1-|
------------------------------------------------------------------|


                      y lo noto.....
-----------------------------------------------------------------|
-----------------------------------------------------------------|
-1-1-1-1-3-3-3-3-3-3-3-3-1-1-1-1-1-1-1-1-------------------------|
-----------------------------------------------------------------|


 Noto que mi corazón      no se...  no va...    que las miradas
-----------------------------------------------------------------|
-----------------------------------------------------------------|
-3-3-3-3-3-3-3-3---------------------0-1-1-0-1-1-0-3-3-0-3-3-3-3-|
-----------------1-0-1-1-0-1-1-0-1-1-----------------------------|


se caen y que muere      el mar             tu y yo tenemos
-----------------------------------------------------------------|
-------------------------0-1-1-0-1-1-0-3-3-0-3-3-3-3-------------|
-----1-0-1-1-0-1-1-0-1-1-----------------------------------------|
-----------------------------------------------------------------|

que hablar   porque    ya se va acabando el aire entre nosotros
-----------------------------------------------------------------|
-----------------------------------------------------------------|
-1-1-0-1-1-0-3-3-0-3-3-3-3----5----4--------3--------------1-1-0-|
----------------------------------------------------3------------|


                y lo noto...
-----------------------------------------------------------------|
-----------------------------------------------------------------|
-1-1-0-1-1-0-1-1-0-3-3-0-3-3-0-3-3-3-3-3-3/8---------------------|
-----------------------------------------------------------------|

-----------------------------------------------------------------|
-----------------------------------------------------------------|
---------------------0-1-1-0-1-1-0-3-3-0-3-3-3-3-----------------|
-1-0-1-1-0-1-1-0-1-1-----------------------------0---------------|


-----------------------------------------------------------------|
---------------------0-1-1-0-1-1-0-3-3-0-3-3-3-3-----------------|
-1-0-1-1-0-1-1-0-1-1-----------------------------0---------------|
-----------------------------------------------------------------|


-----------------------------------------------------------------|
---------------------0-1-1-0-1-1-0-3-3-0-3-3-3-3-----------------|
-1-0-1-1-0-1-1-0-1-1-----------------------------0---------------|
-----------------------------------------------------------------|


-----------------------------------------------------------------|
-----------------------0-1-1-0-1-1-0-3-3-0-3-3-3-3---------------|
-1-0-1-1-0-1-1-0-8-8-8-----------------------------0-------------|
-----------------------------------------------------------------|


-----------------------------------------------------------------|
-----------------------------------------------------------------|
-8-8-8-8-8-8-8-8-8-8-8-8-8-8-8-8-8-8-8-8-8-8-8-8-8-8-8-8-8-8-8-8-|
-----------------------------------------------------------------|
            
Submit corrections

comments powered by Disqus
↑ Back to top | Hombres G Bass for Lo Noto. Lyrics for acoustic guitar and electric guitar. Tablatures and chords are parodies/interpretations of the original songs. You may use it for private study, scholarship, research or language learning purposes only