>
 >
Lawrence De Arabia

Lawrence De Arabia Guitar Tabs

Hombres G - Lawrence De Arabia chords, tabs, tablatures, lyrics

Guitar lessons | Add/correct | Request | Top 50 tabs Artists:  A B C D E F G H I J K L M N O P Q R S T U V W X Y Z 0-9

Lawrence De Arabia Guitar Tabs – Hombres G

CD, Sheet music, Poster

Do you like Lawrence De Arabia? Share with your friends now
Tabs
holas de nuevo esta cancion es una BESTIA
Ahi les va:

La 2da guitarra hace 2 tipos de rasgueo:

    C    C#m    Dm (varias veces...vamos a llamarlo Intro 1)

e---3-----4-----5---|
B---5-----5-----6---|
G---5-----6-----7---|
D---5-----6-----7---|
A---3-----4-----5---|
E---3-----4-----5---|

Luego: (vamos a llamarlo Intro 2)
e-55555-3-4----|
B-66666-5-5----|
G-77777-5-6----|
D-77777-5-6----|
A-55555-3-4----|
E-55555-3-4----|

Y la 1ra hace esto:

e-------------------------------------------------10-|
B-------7-8-7-8-7-8-7-8-10-8-7-7-8-------------------|
G-5-6-7---------------------------7-7-7-7-5-5/7-7----|
D----------------------------------------------------|
A----------------------------------------------------|
E----------------------------------------------------|

e--------------------------------------------------|
B--------7-8-7---7-8-7-8-10-8-7-8------------------|
G-5-6-6/7-----6/7----------------7-7-7-7-5-5/7-7---|
D--------------------------------------------------|
A--------------------------------------------------|
E--------------------------------------------------|

e-------------------------------------------------10-|
B-------7-8-7-8-7-8-7-8-10-8-7-7-8-------------------|
G-5-6-7---------------------------7-7-7-7-5-5/7-7----|
D----------------------------------------------------|
A----------------------------------------------------|
E----------------------------------------------------|

e----------------------------------------------------|
B--------7-8-7---7-8-7-8-10-8-7-8--------------------|
G-5-6-6/7-----6/7----------------7-7-7-7-5-5/7-7-5-6-|
D----------------------------------------------------|
A----------------------------------------------------|
E----------------------------------------------------|

Versos:

Guitarra 1:

e-5555--1111--3333--888585--5555--1111--5-|
B-6666--3333--5555--666666--6666--3333--6-|
G-7777--3333--5555--555555--7777--3333--7-|
D-7777--3333--5555--777777--7777--3333--7-|
A-5555--1111--3333--555555--5555--1111--5-|
E-5555--1111--3333--555555--5555--1111--5-|


Guitarra 2:

e-5555--6666--8888--131313101310-5555--6666--8888--5-|
B-6666--6666--8888--101010101010-6666--6666--8888--6-|
G-7777--7777--9999--101010101010-7777--7777--9999--7-|
D-7777--8888--10x4--xxxxxxxxxxxx-7777--8888--10x4--7-|
A-5555--8888--10x4--xxxxxxxxxxxx-5555--8888--10x4--5-|
E-5555--6666--8888--xxxxxxxxxxxx-5555--6666--8888--5-|


Pre-verso:

Guitarra 1:
e-------------------------------6-5-------|
B-------------------------------6-5-------|
G-------------------------------7-6-6-7-6-|
D-------------------------------8-7-------|
A-5-4-3------3-4-5------5-4-3---8-7-------|
E-------------------------------6-5-------|

Guitarra 2:

e-5-4-333333--3-4-555555--5-4-3333333-6-5-|
B-6-5-555555--5-5-666666--6-5-5555555-6-5-|
G-7-6-555555--5-6-777777--7-6-5555555-7-6-|
D-7-6-555555--5-6-777777--7-6-5555555-8-7-|
A-5-4-333333--3-4-555555--5-4-3333333-8-7-|
E-5-4-333333--3-4-555555--5-4-3333333-6-5-|

Solo medio:

Guitarra 2: Hace el intro 2

Guitarra 1:

e----------------------------------------------------|
B------7-8-7-8-7-8-7-8-10-8-7-7-8--------------------|
G-5-6-7--------------------------7-7-7-7-5-5/7-7-5-6-|
D----------------------------------------------------|
A----------------------------------------------------|
E----------------------------------------------------|

e------------------------------------------10--------|
B----------------------------------------------------|
G-6/7-7-8-7----7-8-7-8-10-8-7-8---------------(5-6)--|
D----------6/7-----------------7-7-5-5/7-7-----------|
A----------------------------------------------------|
E----------------------------------------------------|

Repetir Verso, luego Pre-verso
Cuando se termina el pre-verso se escucha un riff asi:

e-555555-
B-555555-
G-666666-
D-777777-
A-777777-
E-555555-

En esta parte hay un cambio, la 1ra hace el rasgueo y la 2da hace un arpegio:

Guitarra 1:

e-1111-3333-6666-5555------------1-3-6-5-6-5-3-1---------------------0----------------|
B-1111-3333-6666-6666------------1-3-6-6-6-6-5-3-(todas estas     )--2---(menos esta)-|
G-2222-4444-7777-7777-x2y luego:-2-4-7-7-7-7-5-3-(notas se repiten)--2----------------|
D-3333-5555-8888-7777------------3-5-8-7-8-7-5-3-(4 veces cada una)--2----------------|
A-3333-5555-8888-5555------------3-5-8-5-8-8-3-1-(sino q me da    )--0----------------|
E-1111-3333-6666-5555------------1-3-6-5-6-6-3-1-(flojera         )--0----------------|

Guitarra 2:

e--1-----3-----6------10----------1-----3-----6------10-------6------10-------8-----6-----5---|
B---1-----3-----6-------10---x2----1-----3-----6-------10------6-------10------8-----6----5---|
G-2--2--4--4--7--7--10----10-----2--2--4--4--7--7--10----10--7--7--10----10--9--9--7--7---6---|
D-----------------------------------------------------------------------------------------7---|
A-----------------------------------------------------------------------------------------7---|
E-----------------------------------------------------------------------------------------5---|

Solo principal:
Guitarra 2: Repite el Intro 1 y luego el Intro 2

Guitarra 1:

e-----------------------------------------------|
B------7-8-7-8-7-8-7-8-10-8-7-7-8---------------|
G-5-6-7--------------------------7-7-7-7-5/7-7--|
D-----------------------------------------------|
A-----------------------------------------------|
E-----------------------------------------------|

e-----------------------------------------------------------|
B--------7-8-7---7-8-7-8-10-8-7-7/8-8/10-10-10/13-13/15-15--|
G-5-6-6/7-----6/7-------------------------------------------|
D-----------------------------------------------------------|
A-----------------------------------------------------------|
E-----------------------------------------------------------|


Esta parte esta llena de efectos:

e------------------------13--13--13----15/22--|
B-15-15-15-15-15-15-15-15--15--15--15--15/22--|
G---------------------------------------------|
D---------------------------------------------|
A---------------------------------------------|
E---------------------------------------------|

e-----------------------------------------------|
B----------------------------------10--10--10---|
G-----------------------------------------------|
D-12/7-7/12-12-10/12-10/12-10/12-12--12--12--12-|
A-----------------------------------------------|
E-----------------------------------------------|


e------13-13-10-13------------------------------------|
B---10(10-10-10-10)-10-10-13-13-13-13-10-10-8/10-10---|
G------------------(10-10-10-10-10-10-10-10-9/10-10)--|
D-12--------------------------------------------------|

Repetir Verso y Pre-verso

Final:
C-C#-D





Comments


Popular Hombres G tabs & chords
Devuelveme A Mi Chica Bass Tabs
La Cagaste Burt Lancaster Bass Tabs
Lo Noto Bass Tabs
Dejad Que Las NiñAs Se Acerquen A Mi Chords
Devuelveme A Mi Chica Chords
Mi Vida Sin Ti Chords
Te Echo De Menos Chords
Hoy Es Mi Cumpleanos Tabs
El Ataque De Las Chicas Cocodrilo Ukulele
Mexico Ukulele


Song lyrics



↑ Back to top | Tablatures and chords are parodies/interpretations of the original songs. You may use it for private study, scholarship, research or language learning purposes only
© 2014 AZChords.com Contact us | Privacy policy | DMCA | Add/correct tabs | Request tabs | Top 50 tabs