» » »

Hombres G, Devuelveme A Mi Chica Bass tabs (ver.1)

Artists:  A B C D E F G H I J K L M N O P Q R S T U V W X Y Z # 

Devuelveme A Mi Chica Bass tabs (ver.1)

Hombres G Tabs
Rating:
3/5 (1 vote)
Devuelveme A Mi Chica lessons Tabs too difficult? Try these video lessons and learn fast
                INTRO:
G|-------------------|---------------|-------------------|---------------|
D|-------------------|---------------|-------------------|---------------|
A|-------5-----------|---------------|-------5-----------|---------------|
E|-------------------|------5--------|-------------------|------5--------|

VERSOS:
   Estoy llorando en mi habitacion   /  Todo se nubla a mi alrededor
G|-------------------|---------------|---------------|-----------------|
D|-------------------|---------------|---------------|-----------------|
A|--------5----------|---------------|------5--------|-----------------|
E|-------------------|-------5-------|---------------|--------5--------|

  Ella se fue con un niño pijo   / En un ford fiesta blanco y un ...
G|-----------------|-------------|---------------|-----------------|
D|-----------------|-------------|---------------|-----------------|
A|-----------------|------5------|---------------|-----------------|
E|-5-4-3-----------|-------------|----5-4-3------|--------5--------|

VERSOS: "Por el parque los veo pasar..."
G|---------------------------------------------------------|
D|---------------------------------------------------------|
A|-55-55-55-5555---------------55-55-55-5555---------------|
E|---------------55-55-55-5555---------------55-55-55-5543-|

G|---------------------------------------------------------|
D|---------------------------------------------------------|
A|---------------55-55-55-5--------------------------------|
E|-33-33-33-3333-----------543-33-33-33-3333-55-55-55-5555-|

CORO:"Sufre mamón, devuelveme a mi chica..."
G|---------------------------------------------------|
D|---------------------------------------------------|
A|-111111-------111111-------111111------------------|  X2
E|-------111111-------111111-------111111-3333555555-|

SOLO:(después del coro)
G|---------------------------------------------------------|
D|---------------------------------------------------------|
A|-55-55-55-5555---------------55-55-55-5555---------------|
E|---------------55-55-55-5555---------------55-55-55-5543-|

G|---------------------------------------------------------|
D|---------------------------------------------------------|
A|---------------55-55-55-5--------------------------------|
E|-33-33-33-3333-----------543-33-33-33-3333-55-55-55-5555-|

VERSOS: "Le he quemado su Jerzey..."
G|---------------------------------------------------------|
D|---------------------------------------------------------|
A|-55-55-55-5555---------------55-55-55-5555---------------|
E|---------------55-55-55-5555---------------55-55-55-5543-|

G|---------------------------------------------------------|
D|---------------------------------------------------------|
A|---------------55-55-55-5--------------------------------|  (TODO X2)
E|-33-33-33-3333-----------543-33-33-33-3333-55-55-55-5555-|

CORO:"Sufre mamón, devuelveme a mi chica..."
G|---------------------------------------------------|
D|---------------------------------------------------|
A|-111111-------111111-------111111------------------|  X4
E|-------111111-------111111-------111111-3333555555-|
            

comments powered by Disqus
↑ Back to top | Hombres G Bass for Devuelveme A Mi Chica. Lyrics for acoustic guitar and electric guitar. Tablatures and chords are parodies/interpretations of the original songs. You may use it for private study, scholarship, research or language learning purposes only