» » »

Dear Pain Bass tabs (ver.1)

Artists:  A B C D E F G H I J K L M N O P Q R S T U V W X Y Z # 

Dear Pain Bass tabs (ver.1)

Holly Mcnarland
Rating:
0/5 (0 votes)

Hard to play? Try these video lessons and learn fast.
                -------------------------------------------------------------------------------
-------------------------------------------------------------------------------


Tuning: standard EADG


Play this 00:00-00:30
G|---------------------------------------------------------------------------|
D|-----7-8-8-8-7-7-----7-8-8-8-7-7-----7-8-8-8-7-7-5-5-5-5-------------------|
A|-5-5-------------5-5-------------5-5---------------------8-8-8-8-----------|
E|---------------------------------------------------------------------------|
Then this: 00:31-00:36
G|---------------------------------------------------------------------------|
D|-----7-8-8-8-7-7-5-5-5-5-5-5-5-5-5-5-5-5-5-5-5-5---------------------------|
A|-5-5-----------------------------------------------------------------------|
E|---------------------------------------------------------------------------|

00:37-01:17 "want you out of my head just get out of my head..."
G|---------------------------------------------------------------------------|
D|-8-8-8-8-8-8-8-8-7-7-7-7-7-7-7-7----------------------------------8-8-8-8--|
A|---------------------------------5-5-5-5-5-5-5-5-8-8-8-8-8-8-8-8-----------|
E|---------------------------------------------------------------------------|

G|---------------------------------------------------------------------------|
D|-8-8-8-8-7-7-7-7-7-7-7-7-----7-8-8-8-7-7-----7-8-8-8-7-7-----7-8-8-8-7-7---|
A|-------------------------5-5-------------5-5-------------5-5---------------|
E|---------------------------------------------------------------------------|

G|---------------------------------------------------------------------------|
D|-5-5-5-5--------------7-8-8-8-7-7-----7-8-8-8-7-7-----7-8-8-8-7-7-5-5-5-5--|
A|---------8-8-8-8--5-5-------------5-5-------------5-5----------------------|
E|---------------------------------------------------------------------------|



G|---------------------------------------------------------------------------|
D|-5-5-5-5-5-5-5-5-5-5-5-5---------------------------------------------------|
A|---------------------------------------------------------------------------|
E|---------------------------------------------------------------------------|

01:18-02:00
G|-----------------------------------------------------------------------------|
D|-8-8-8-8-8-8-8-8-7-7-7-7-7-7-7-7---------------------------------8-8-8-8-8---|
A|---------------------------------5-5-5-5-5-5-5-5-8-8-8-8-8-8-8-8-------------|
E|-----------------------------------------------------------------------------|

G|-------------------------------------------------------8-8-8-8-8-8-8-8-----|
D|-8-8-8-7-7-7-7-7-7-7-7-5-5-5-5-5-5-5-5-5-5-5-5-5-5-5-5---------------------|
A|---------------------------------------------------------------------------|
E|---------------------------------------------------------------------------|

G|-----------------------------------------------------------------------------|
D|-7-7-7-7-7-7-7-7-5-5-5-5-5-5-5-5-8-8-8-8-8-8-8-8-7-7-7-7-7-7-7-7-8-8-8-8-8---|
A|-----------------------------------------------------------------------------|
E|-----------------------------------------------------------------------------|

G|---------------------------------------------------------------------------|
D|-8-8-8-7-7-7-7-7-7-7-7-----------------------------------------------------|
A|------------------------5-5-etc (stay on D)--------------------------------|
E|---------------------------------------------------------------------------|

Holly comes back in @02.15 repeat the "want you out of my head" in Bb - A - D etc to 
finish (shouldn't be too hard to work out)
            
Hard to play? Try these video lessons and learn fast. | Correct




comments powered by Disqus
↑ Back to top | Tablatures and chords are parodies/interpretations of the original songs. You may use it for private study, scholarship, research or language learning purposes only