» » »

Hollerado, Juliette Tabs (ver.5)

Artists:  A B C D E F G H I J K L M N O P Q R S T U V W X Y Z # 

Juliette Tabs (ver.5)

Hollerado Tabs
Rating:
0/5 (0 votes)
Juliette lessons Tabs too difficult? Try these video lessons and learn fast
                Tuning-Standard
This is my first tab, I think its more accurate than the other Juliette tab  

Intro

e|--2--2-x-2-0--0--x-2--x-2--x-0--0-------|
B|--3--2-x-2-2--2--x-2--x-2--x-2--2-------|
G|--2--4-x-2-2--2--x-4--x-2--x-2--2-------|
D|--0--4-x-4-2--2--x-4--x-4--x-2--2-------|
A|--0--2-x-4-0--0--x-2--x-4--x-0--0-------|
E|-------x-2-0--0--x----x-2--x-0--0-------|

e|--2--2-x-2-0--0--2--0--2--x-2--0--0-----|
B|--3--2-x-2-2--2--2--2--2--x-2--0--0-----|
G|--2--4-x-2-2--2--2--2--4--x-2--1--1-----|
D|--0--4-x-4-2--2--4--2--4--x-4--2--2-----|
A|--0--2-x-4-0--0--4--0--2--x-4--2--2-----|
E|-------x-2-0--0--2--0-----x-2--0--0-----|

Verse

e|-x-x-x-0-x-x-x-0-x-x-x-2-x-x-0-0--x-x-x-2-x-x-x-0-x-x-x-2-x-x-x-0--2-----|
B|-x-x-x-2-x-x-x-2-x-x-x-2-x-x-2-2--x-x-x-2-x-x-x-2-x-x-x-2-x-x-x-2--2-----|
G|-x-x-x-2-x-x-x-2-x-x-x-4-x-x-2-2--x-x-x-4-x-x-x-2-x-x-x-4-x-x-x-2--2-----|
D|-x-x-x-2-x-x-x-2-x-x-x-4-x-x-2-2--x-x-x-4-x-x-x-2-x-x-x-4-x-x-x-2--2-----|
A|-x-x-x-0-x-x-x-0-x-x-x-2-x-x-0-0--x-x-x-2-x-x-x-0-x-x-x-2-x-x-x-0--0-----|
E|-x-x-x-0-x-x-x-0-x-x-x---x-x-0-0--x-x-x---x-x-x-0-x-x-x---x-x-x-0--0-----|

e|-x-x-x-2-x-x-x-0-x-x-x-2--0--0-----|
B|-x-x-x-2-x-x-x-2-x-x-x-2--0--0-----|
G|-x-x-x-4-x-x-x-2-x-x-x-2--1--1-----|
D|-x-x-x-4-x-x-x-2-x-x-x-4--2--2-----|
A|-x-x-x-2-x-x-x-0-x-x-x-4--2--2-----|
E|-x-x-x---x-x-x-0-x-x-x-2--0--0-----|

Chorus outro

e|-2-2-2-2-2-0---2-2-2-2-2-0---2-2-2-2-2-0---2-2-2-2-2-0-2-----|
B|-3-3-3-3-2-2---3-3-3-3-2-0---3-3-3-3-2-2---2-2-2-2-2-2-2-----|
G|-2-2-2-2-4-2---4-4-4-4-2-1---2-2-2-2-4-2---4-4-4-4-4-2-2-----|
D|-0-0-0-0-4-2---0-0-0-0-4-2---0-0-0-0-4-2---4-4-4-4-4-2-4-----|
A|-0-0-0-0-2-0-----------4-2---0-0-0-0-2-0---2-2-2-2-2-0-4-----|
E|-----------0-----------2-0-------------0---------------2-----|


repeat as necessary and place in the right order where needed have fun
            
Submit corrections

comments powered by Disqus
↑ Back to top | Hollerado Tabs for Juliette. Lyrics for acoustic guitar and electric guitar. Tablatures and chords are parodies/interpretations of the original songs. You may use it for private study, scholarship, research or language learning purposes only