» » »

Hollerado, Juliette Tabs (ver.4)

Artists:  A B C D E F G H I J K L M N O P Q R S T U V W X Y Z # 

Juliette Tabs (ver.4)

Hollerado Tabs
 Rating:
4.3/5 (6 votes)
Juliette lessons Tabs too difficult? Try these video lessons and learn fast
                Song Title: Juliette
Album Title: Record in a Bag

Intro/Chorus:
e|-x-x-----x-x--------x-x-x---x-x--------|
B|-x-x-----x-x---2--2-x-x-x---x-x---2--2-|
G|-x-x-7-4-x-x---2--2-x-x-x-4-x-x---2--2-|
D|-x-x-7-4-x-x-4-2--2-x-x-x-4-x-x-4-2--2-|
A|-x-x-5-2-x-x-4-0--0-x-x-x-2-x-x-4-0--0-|
E|-x-x-----x-x-2------x-x-x---x-x-2------|
                                              
e|-x-x-----x-x---------------x-x---------|
B|-x-x-----x-x---2--2------2-x-x---------|
G|-x-x-7-4-x-x---2--2------2-x-x-4-------|
D|-x-x-7-4-x-x-4-2--2--3/4-2-x-x-4-4-2-2-|
A|-x-x-5-2-x-x-4-0--0--3/4-0-x-x-2-4-2-2-|
E|-x-x-----x-x-2-------1/2---x-x---2-0-0-|


Verse:
e|-x-x-x-x---x-x-x-x-x-x---x-x-x-x-x-x---x-x-x-x-----|
B|-x-x-x-x---x-x-x-x-x-x-2-x-x-x-x-x-x---x-x-x-x-2-2-|
G|-x-x-x-x-4-x-x-x-x-x-x-2-x-x-x-x-x-x-4-x-x-x-x-2-2-|
D|-x-x-x-x-4-x-x-x-x-x-x-2-x-x-x-x-x-x-4-x-x-x-x-2-2-| x3
A|-x-x-x-x-2-x-x-x-x-x-x-0-x-x-x-x-x-x-2-x-x-x-x-0-0-| 
E|-x-x-x-x---x-x-x-x-x-x---x-x-x-x-x-x---x-x-x-x-----|

e|-x-x-x-x---x-x-x-x-x-x---x-x-x-x-x-x---x-x-x-x-----|
B|-x-x-x-x---x-x-x-x-x-x-2-x-x-x-x-x-x---x-x-x-x-2-2-|
G|-x-x-x-x-4-x-x-x-x-x-x-2-x-x-x-x-x-x---x-x-x-x-2-2-|
D|-x-x-x-x-4-x-x-x-x-x-x-2-x-x-x-x-x-x-4-x-x-x-x-2-2-|
A|-x-x-x-x-2-x-x-x-x-x-x-0-x-x-x-x-x-x-4-x-x-x-x-0-0-|
E|-x-x-x-x---x-x-x-x-x-x---x-x-x-x-x-x-2-x-x-x-x-----|


Chorus Part 2:
{Guitar 1}
e|-2-2-2-2-------------------2-2-2-2-----------------------|
B|-3-3-3-3-2-2----------2-2--3-3-3-3-2-2------------2-2----|
G|-2-2-2-2-2-2--4-4-4-4-2-2--2-2-2-2-2-2--4-4-4-4-4-2-2----|
D|-0-0-0-0-2-2--4-4-4-4-2-2--0-0-0-0-2-2--4-4-4-4-4-2-2----|
A|---------0-0--2-2-2-2-0-0----------0-0--2-2-2-2-2-0-0----|
E|---------------------------------------------------------|

{Guitar 2}
e|------------------------------------------------------|
B|------------------------------------------------------|
G|-7-7-7-7-6-6---7-7-7-7-6-----7-7-7-7-6-6----------6---|
D|-------------------------7----------------9-9-9-9---7-|
A|------------------------------------------------------|
E|------------------------------------------------------|

or

{Guitar 2}
e|--7b9b7-5-|
B|----------|
G|----------|
D|----------|
A|----------|
E|----------|


Bridge:
e|-4-4---5-5--4-4---5-5-|
B|-5-5---7-7--5-5---7-7-|
G|-6-6---7-7--6-6---7-7-|
D|-6-6---7-7--6-6---7-7-| x alot
A|-4-4---5-5--4-4---5-5-|
E|----------------------|

e|---4----------|
B|-----5---5----|
G|-----------4--|
D|-6-----7------|
A|--------------|
E|--------------|

--Verse 1--
She's got houseplants, 
to keep her company.
I bought her a goldfish, 
She named it after me.
We look at old photographs, 
Of lovers come and gone
Ask her if it makes her sad, 
She says "son you've got so much to learn."

--Chorus--
Juliette
The love of life that you have kept
Juliette
Smiling on her dying bed
Juliette
Got a grace about you yet.
Juliette
Smoking her last cigarette

--Verse 2--
Three is teatime,
She puts on patsy cline
Cuts the crusts of sandwiches
Mentions how she don't mind dyin'
Tells stories about pearl and earl
Best friends that she once had
We do the dishes,
Then she says its time for bed

--Chorus--

--Bridge--

--Verse 3--
We ate ice cream
Last night before she slept
No plans for breakfast
Except to read the note she left
Gray and white skies
That day was a blur for me
She made me promise not to cry
So here's a drink I drink to thee.

--Chorus--
            
Submit corrections

comments powered by Disqus
↑ Back to top | Hollerado Tabs for Juliette. Lyrics for acoustic guitar and electric guitar. Tablatures and chords are parodies/interpretations of the original songs. You may use it for private study, scholarship, research or language learning purposes only