» » »

Got To Lose Chords (ver.1)

Artists:  A B C D E F G H I J K L M N O P Q R S T U V W X Y Z # 

Got To Lose Chords (ver.1)

Hollerado
Rating:
3/5 (3 votes)

Hard to play? Try these video lessons and learn fast.
                -------------------------------------------------------------------------------
-------------------------------------------------------------------------------
Tuning: Standard

Here's a great track from Hollerado's 2009 album Record in a Bag, released for free on 

INTRO

F#                    Bbm
   Sunday morn has a-broken
        Ebm        F#
Like a whip on my back
                       Bbm
And we still have not spoken
           Ebm       F#
Since the day that I left
       Gb5 (let ring)
You got to lose love if you want to find love

ALTERNATE CHORUS

e|-------------------------------------------------------------------------|
B|-------------------------------------------------------------------------|
G|-------------------------------6-7-8-8-8-8-8-8---------------------------|
D|-4-4-4-4-4-4--6-7-8-8-8-8-8-8--6-7-8-8-8-8-8-8--8-6-4-4-4-4-4-4-4-4------|
A|-4-4-4-4-4-4--6-7-8-8-8-8-8-8--4-5-6-6-6-6-6-6--8-6-4-4-4-4-4-4-4-4------|
E|-2-2-2-2-2-2--4-5-6-6-6-6-6-6-------------------6-4-2-2-2-2-2-2-2-2------|x2

You got to lose, you got to lose
You got to lose, you got to lose


FIRST VERSE

F#                     Bbm
Train pulled into some kinda burned out town
       Ebm                       F#
I was aching like a half past dead
                               Bbm
There was a man with a monocle eating pineapple outside
    Ebm                                F#
He offered me to trade his ride for head (what?)

                               Bbm
How far a walk to town where a bar could be found?
    Ebm                        F#
I got just enough change for a drink
                                        Bbm
There was a rubbie with a bible and some bad news on the brink
          Ebm                     F#
He said, "It's not too far now I think"

PRE-CHORUS

B5                               Eb5
    We came down from the trees,     singing
B5
    We came down from the trees

CHORUS

         F#5                  B5                 Eb5
 You got to lose love if you want to find love
                   F#5
 You got to lose       You got to lose
         F#5                  B5                 Eb5
 You got to lose love if you want to find love
                   F#5
 You got to lose       You got to lose

SECOND VERSE

F#                                         Bbm
   When darkness fell it held the rain like water in my shaking hand
Ebm                                 F#
    With no one there to lead the walk
                                           Bbm
And so the night was getting dirty and I begged the lord for mercy
        Ebm                               F#
And He said, "Oh, so now you wanna talk?"
                    Bbm          Ebm                       F#
Found myself in a garden of Eden just as the sun began to rise
                                 Bbm
And we sipped red wine with our lips upon the vine
      Ebm                          F#
And our bodies got tangled in the night

PRE-CHORUS

B5                               Eb5
    We came down from the trees,     singing
B5
    We came down from the trees

CHORUS

     F#5                      B5                 Eb5
 You got to lose love if you want to find love
                  F#5
 You got to lose       You got to lose
     F#5                      B5                 Eb5
 You got to lose love if you want to find love
                  F#5
 You got to lose       You got to lose

BRIDGE

B                                Ebm
    We came down from the trees,      swinging from telephone lines
B                                Ebm                       B
    We came down from the trees,      singing and telling lies

          F#                       B
Like you got to lose love if you want to find love
     F#                       A
You got to lose love if you want to find love
     F#                       B
You got to lose love if you want to find love
     F#                       A
You got to lose love if you want to find love

ENDING (ALTERNATE CHORUS)

e|-------------------------------------------------------------------------|
B|-------------------------------------------------------------------------|
G|-------------------------------6-7-8-8-8-8-8-8---------------------------|
D|-4-4-4-4-4-4--6-7-8-8-8-8-8-8--6-7-8-8-8-8-8-8--8-6-4-4-4-4-4-4-4-4------|
A|-4-4-4-4-4-4--6-7-8-8-8-8-8-8--4-5-6-6-6-6-6-6--8-6-4-4-4-4-4-4-4-4------|
E|-2-2-2-2-2-2--4-5-6-6-6-6-6-6-------------------6-4-2-2-2-2-2-2-2-2------|x4

You got to lose, you got to lose
You got to lose, you got to lose
You got to lose, you got to lose
You got to lose, you got to lose

End on Gb
            
Hard to play? Try these video lessons and learn fast. | Correct




comments powered by Disqus
↑ Back to top | Tablatures and chords are parodies/interpretations of the original songs. You may use it for private study, scholarship, research or language learning purposes only