>
 >
Walking By

Walking By Chords

Holiday Parade - Walking By chords, tabs, tablatures, lyrics

Guitar lessons | Add/correct | Request | Top 50 tabs Artists:  A B C D E F G H I J K L M N O P Q R S T U V W X Y Z 0-9

Walking By Chords – Holiday Parade

CD, Sheet music, Poster

Do you like Walking By? Share with your friends now
Bass TabsChordsTabsUkulele
The original tab for this song was not correct except in a couple of places. I feel that 
this is more accurate. Enjoy!

Capo 2

intro:

e|-----------------------------------|
B|-0----0h1p0--3------3--5-------5---|
G|---0-----------0---------0---------|
D|-----------------------------------|       x2
A|-------------2---2-----3----3------|
E|-3---------------------------------|

Verse 1:
               G
It's about the nights we spent
       G/B      C
locked up inside your room
               G
it's about the morning breaking
G/B           C
always just a bit too soon
               Em
it's about the way you're scared
D          G G/f# G/B G/C C
baby, just maybe I'm aware
        D
this is what you need 'cause

Chorus:
C              G
Every time you walk in the room
      Em
can't help myself
  D
I wanna be with you
C              G
hit the mic, a quick check
         Em             D
one, two singing out my lungs
just to reach you
C      G
I'm alive
      Em      D             C
and I keep my cool one more time
             D
and you just keep on walking by

Verse 2:
                G
I take a day to tell myself
    G/B          C
I'm gonna end up fine
                      G
it's all part of some master plan
      G/B          C
we're all a little lost inside
          Em
even if i run right now
D
swore you off
    G     G/f# G/B  G/C  C
I'd still come back somehow
    D
and here I am now


Chorus:
C              G
Every time you walk in the room
      Em
can't help myself
  D
I wanna be with you
C              G
hit the mic, a quick check
         Em             D
one, two singing out my lungs
just to reach you
C      G
I'm alive
      Em      D             C
and I keep my cool one more time
             D
and you just keep on walking by

Bridge:
C               G        D
I take a day to soak you in
      C
for a while
                   G      D
I'm hanging on the best I can
    C
let go
                 G       D
cause maybe if I felt it once
             G  G/f# G/B  G/C  C
Then I could somehow feel it again


Interlude:

e|-------------------------------------------------0---|
B|-------------------------------------------------1---|
G|-------0-------0--------0--------0------------0------|
D|-----0--0-----0-0------0-0------0-0-------0h2--------|
A|---------------------------------------3-------------|
E|---0--------2-------3--------2-----------------------|


Chorus:
C              G
Every time you walk in the room
      Em
can't help myself
  D
I wanna be with you
C              G
hit the mic, a quick check
         Em             D
one, two singing out my lungs
just to reach you
C      G
I'm alive
      Em      D             C
and I keep my cool one more time
             D
and you just keep on walking by
C              G
Every time you walk in the room
      Em
can't help myself
  D
I wanna be with you
C              G
hit the mic, a quick check
         Em             D
one, two singing out my lungs
just to reach you
C      G
I'm alive
      Em      D             C
and I keep my cool one more time
             D
and you just keep on walking by


outro:

e|-----------------------------------|
B|-0----0h1p0--3------3--5-------5---|
G|---0-----------0---------0---------|
D|-----------------------------------|       x2
A|-------------2---2-----3----3------|
E|-3---------------------------------|



G/B
e|------3---|
B|------3---|
G|----------|
D|----------|
A|--2-------|
E|----------|

G/f#
e|------3---|
B|------3---|
G|----------|
D|----------|
A|----------|
E|--2-------|

G/C
e|------3---|
B|------3---|
G|----------|
D|----------|
A|----------|
E|------3---|

G
e|------3---|
B|------3---|
G|----------|
D|----------|
A|--2-------|
E|------3---|

C
e|------3---|
B|------3---|
G|----------|
D|--2-------|
A|------3---|
E|----------|

Em
e|------3---|
B|------3---|
G|----------|
D|--2-------|
A|--2-------|
E|----------|

D
e|------3---|
B|---2------|
G|------3---|
D|----------|
A|----------|
E|----------|





Comments


Popular Holiday Parade tabs & chords
Look Out Below (This Love) Chords
Make It Count Chords
Never Enough Chords
Success Story Chords
Tickets & Passports Chords
Mixdown Tabs
Never Enough Tabs
Walking Away Intro Tabs
Make It Count Ukulele
Slam Crunk Ukulele


Song lyrics



↑ Back to top | Tablatures and chords are parodies/interpretations of the original songs. You may use it for private study, scholarship, research or language learning purposes only
© 2014 AZChords.com Contact us | Privacy policy | DMCA | Add/correct tabs | Request tabs | Top 50 tabs