>
 >
Walking By

Walking By Guitar Tabs

Holiday Parade - Walking By chords, tabs, tablatures, lyrics

Guitar lessons | Add/correct | Request | Top 50 tabs Artists:  A B C D E F G H I J K L M N O P Q R S T U V W X Y Z 0-9

Walking By Guitar Tabs – Holiday Parade

CD, Sheet music, Poster

Do you like Walking By? Share with your friends now
Bass TabsChordsTabsUkulele
----------------------------------------------------------------------------
----------------------------------------------------------------------------

Tuning: Standard, capo on the 2nd fret

Intro
e|-----------------------------------|
B|-0----0h1p0--3------3--5-------5---|
G|---0-----------0---------0---------|
D|-----------------------------------|       x2
A|-3----3------2---2-----3----3------|
E|-----------------------------------|


Verse 1

play intro, then :

e|--3----3----3---3---3---3---3----2---|
B|--3----3----3---3---3---3---3----3---|
G|--0----0----0---0---0---0---0----2---|
D|--2----0----2---0---0---2---2----0---|
A|--3----x----3---2---x---2---3----x---|
E|--x----2----x---3---2---0---x----x---|


Chorus

The strumming pattern is easy enough 2 figure out

e|---3-------3-------0-------2--------|
B|---3-------3-------0-------3--------|
G|---0-------0-------0-------2--------|                  
D|---2--(x4)--0--(x4)--2--(x4)--0--(x4|      x2
A|---3-------2-------2-------x--------|
E|---x-------3-------0-------x--------|

e|---3-------x--------3-------0-------2---------|
B|---3-------x--------3-------0-------3---------|
G|---0-------x--------0-------0-------2---------|
D|---2--(x2)--x--(x2)---0--(x4)--2--(x4)--0--(x4|
A|---3-------x--------2-------2-------x---------|
E|---x-------x--------3-------0-------x---------|

                        no chords here, but play Cadd9 without this mute on the first chorus

e|---3--------2----------------|
B|---3--------3----------------|
G|---0--------2----------------|
D|---2--(x8)---0--(x4)-(let it ring)--|
A|---3--------x----------------|
E|---x--------x----------------|


Interlude 1 :
play intro

Verse 2
e|---3--------2--------3--------|
B|---3--------3--------3--------|
G|---0--------2--------0--------|
D|---0--(x4)---0--(x4)---2--(x8)|     x2
A|---2--------x--------3--------|
E|---3--------x--------x--------|

e|--3----3----3---3---3---3---3----2---|
B|--3----3----3---3---3---3---3----3---|
G|--0----0----0---0---0---0---0----2---|
D|--2----0----2---0---0---2---2----0---|
A|--3----x----3---2---x---2---3----x---|
E|--x----2----x---3---2---0---x----x---|

play Chorus

Bridge
e|---3-------0-------2--------|
B|---3-------0-------3--------|
G|---0-------0-------2--------|
D|---2--(x8)--2--(x4)--0--(x4)|
A|---3-------2-------x--------|
E|---x-------0-------x--------|


Interlude 2 :

e|-------------------------------------------------0---|
B|-------------------------------------------------1---|
G|-------0-------0--------0--------0------------0------|
D|-----0--0-----0-0------0-0------0-0-------0h2--------|
A|---------------------------------------3-------------|
E|---0--------2-------3--------2-----------------------|

Chorus x2

Outro
e|--------------------------------------------------------------|
B|-0----0h1p0--3------3--5-------5----0----0h1p0--3------3--5---|
G|---0-----------0---------0------------0-----------0-----------|
D|--------------------------------------------------------------|
A|-3----3------2---2-----3----3-------3----3------2---2-----3---|
E|--------------------------------------------------------------|

let the last note ring



| /  slide up
| \  slide down
| h  hammer-on
| p  pull-off
| ~  vibrato
| +  harmonic
| x  Mute note
=============================================================





Comments


Popular Holiday Parade tabs & chords
Look Our Below This Love Chords
Never Enough 2 Chords
Success Story Chords
Getaway 2 Ukulele
Look Our Below This Love Ukulele
Make It Count Ukulele
Over My Head Ukulele
Slam Crunk Ukulele
Success Story Ukulele
Walking By Ukulele


Song lyrics



↑ Back to top | Tablatures and chords are parodies/interpretations of the original songs. You may use it for private study, scholarship, research or language learning purposes only
© 2014 AZChords.com Contact us | Privacy policy | DMCA | Add/correct tabs | Request tabs | Top 50 tabs