» » »

Holiday Parade, Walking By Bass tabs (ver.1)

Artists:  A B C D E F G H I J K L M N O P Q R S T U V W X Y Z # 

Walking By Bass tabs (ver.1)

Holiday Parade Tabs
 Rating:
4/5 (4 votes)
Walking By lessons Tabs too difficult? Try these video lessons and learn fast
1
                No bass for first verse

Chorus
|-------------------------|
|-0----------4------2-----|
|-------0-----------------|  x 3
|-------------------------|
then

|-------------------------|
|-0--0--0--0--2--2--2--2--|
|-------------------------|
|-------------------------|

2nd Verse
|------------------------------------7--|
|----------------------------------7----|
|-0---0-2-4---5---0---0-2-4---5--5------|
|---------------------------------------|

|------------------------------------------------2---1---------------------|
|---------------------------------------4----2-----------4---2---0-----2---|
|-0-------4---5-------0--------4---5---------------------------------------|
|--------------------------------------------------------------------------|

Interlude
|---------------------6--6--4--2---|
|-0---0-0-0---0--------------------|
|----------------------------------| x 3
|----------------------------------|

|--------1--1--2--2--1--1---------|
|-4--4-----------------------4~---|
|---------------------------------|
|---------------------------------|

Final Chorus
|-----------------|
|-0--0-----4---2--|
|-------0---------|
|-----------------| then same as the beginning
            
Submit corrections

comments powered by Disqus
↑ Back to top | Holiday Parade Bass for Walking By. Lyrics for acoustic guitar and electric guitar. 1 Tablatures and chords are parodies/interpretations of the original songs. You may use it for private study, scholarship, research or language learning purposes only