» » »

Holiday Parade, Never Enough Tabs (ver.1)

Artists:  A B C D E F G H I J K L M N O P Q R S T U V W X Y Z # 

Never Enough Tabs (ver.1)

Holiday Parade Tabs
 Rating:
4.5/5 (8 votes)
Never Enough lessons Tabs too difficult? Try these video lessons and learn fast
                ------------------------------------------------------------------------------
                             Never Enough – By Holiday Parade
-------------------------------------------------------------------------------

Tuning: Standard

*Capo 2nd Fret*

Intro:
e|--0-0-------0~-------0-0-0---|
B|--2-2-------0~-------0-0-0---|
G|--2-2-------2~-------2-2-2---|
D|--2-2-------4~-------2-2-2---|
A|--0-0-------4~-------2-2-2---|
E|------------X--------X-X-X---|
       I don’t look back…

Verse:
e|--0-0-0-0--X--0-0-0---0-0-0-0---0-0-0-0-----|
B|--0-0-2-0--X--2-2-0---0-0-0-0---0-0-0-0-----|
G|--2-2-2-2--X--2-2-2---2-2-2-2---2-2-2-2-----|
D|--2-2-2-2--X--2-2-2---4-4-4-4---2-2-2-2-----|
A|--0-0-0-0--X--0-0-0---4-4-4-4---2-2-2-2-----|
E|----------------------X-X-X-X---X-X-X-X-----|
    Don’t think I’m a wreck…

Pre-Chorus:
e|-0-0-0-0-0-0-0-0-0-0-0-0-0-0-0-0-0-0-0-0-0-0-0-0------|
B|-0-0-0-0-0-0-0-0-0-0-0-0-0-0-0-0-0-0-0-0-0-0-0-0------|
G|-4-4-4-4-4-4-4-4-7-7-7-7-7-7-7-7-9-9-9-9-9-9-9-9------|
D|-4-4-4-4-4-4-4-4-7-7-7-7-7-7-7-7-9-9-9-9-9-9-9-9------|
A|-2-2-2-2-2-2-2-2-5-5-5-5-5-5-5-5-7-7-7-7-7-7-7-7------|
E|------------------------------------------------------|
   And, you always smile when…

Verse: 2x
e|--0-0-0-0--X--0-0-0---0-0-0-0---0-0-0-0-----|
B|--0-0-2-0--X--2-2-0---0-0-0-0---0-0-0-0-----|
G|--2-2-2-2--X--2-2-2---2-2-2-2---2-2-2-2-----|
D|--2-2-2-2--X--2-2-2---4-4-4-4---2-2-2-2-----|
A|--0-0-0-0--X--0-0-0---4-4-4-4---2-2-2-2-----|
E|----------------------X-X-X-X---X-X-X-X-----|
    I lose track of time…

Pre-Chorus:
e|-0-0-0-0-0-0-0-0-0-0-0-0-0-0-0-0-0-0-0-0-0-0-0-0~------|
B|-0-0-0-0-0-0-0-0-0-0-0-0-0-0-0-0-0-0-0-0-0-0-0-0~------|
G|-4-4-4-4-4-4-4-4-7-7-7-7-7-7-7-7-9-9-9-9-9-9-9-9~------|
D|-4-4-4-4-4-4-4-4-7-7-7-7-7-7-7-7-9-9-9-9-9-9-9-9~------|
A|-2-2-2-2-2-2-2-2-5-5-5-5-5-5-5-5-7-7-7-7-7-7-7-7~------|
E|-------------------------------------------------------|
    Still you smile…

Chorus:
e|----2---------0---------0---------0--------|
B|----3---------2---------0---------0--------|
G|----2-(8x)----2-(8x)----2-(8x)----2-(8x)---|
D|----0---------2---------4---------2--------|
A|--------------0---------4---------2--------|
E|-------------------------------------------|
    Is it enough?

e|----2---------0---------0-------0--------0-----------|
B|----3---------2---------0-------0--------0-----------|
G|----2-(8x)----2-(8x)----2-(8x)--2-(3x)---2-----------|
D|----0---------2---------2-------4--------2-----------|
A|--------------0---------2-------4--------2-----------|
E|-----------------------------------------------------|
     It’s keeping me up…

Verse: 4x
e|--0-0-0-0--X--0-0-0---0-0-0-0---0-0-0-0-----|
B|--0-0-2-0--X--2-2-0---0-0-0-0---0-0-0-0-----|
G|--2-2-2-2--X--2-2-2---2-2-2-2---2-2-2-2-----|
D|--2-2-2-2--X--2-2-2---4-4-4-4---2-2-2-2-----|
A|--0-0-0-0--X--0-0-0---4-4-4-4---2-2-2-2-----|
E|----------------------X-X-X-X---X-X-X-X-----|
    Lately I’ve been numb…

Pre-Chorus:
e|-0-0-0-0-0-0-0-0-0-0-0-0-0-0-0-0-0-0-0-0-0-0-0-0~------|
B|-0-0-0-0-0-0-0-0-0-0-0-0-0-0-0-0-0-0-0-0-0-0-0-0~------|
G|-4-4-4-4-4-4-4-4-7-7-7-7-7-7-7-7-9-9-9-9-9-9-9-9~------|
D|-4-4-4-4-4-4-4-4-7-7-7-7-7-7-7-7-9-9-9-9-9-9-9-9~------|
A|-2-2-2-2-2-2-2-2-5-5-5-5-5-5-5-5-7-7-7-7-7-7-7-7~------|
E|-------------------------------------------------------|
   The way I see things…

Chorus:
e|----2---------0---------0---------0--------|
B|----3---------2---------0---------0--------|
G|----2-(8x)----2-(8x)----2-(8x)----2-(8x)---|
D|----0---------2---------4---------2--------|
A|--------------0---------4---------2--------|
E|-------------------------------------------|
      Is it enough?

e|----2---------0---------0-------0--------0-----------|
B|----3---------2---------0-------0--------0-----------|
G|----2-(8x)----2-(8x)----2-(8x)--2-(4x)---2-(4x)------|
D|----0---------2---------2-------4--------2-----------|
A|--------------0---------2-------4--------2-----------|
E|-----------------------------------------------------|
     It’s keeping me up…

e|----2---------0---------0---------0--------|
B|----3---------2---------0---------0--------|
G|----2-(8x)----2-(8x)----2-(8x)----2-(8x)---|
D|----0---------2---------4---------2--------|
A|--------------0---------4---------2--------|
E|-------------------------------------------|
      You’re the only one…

e|----2---------0---------0-------0--------0-----------|
B|----3---------2---------0-------0--------0-----------|
G|----2-(8x)----2-(8x)----2-(8x)--2-(3x)---2-----------|
D|----0---------2---------2-------4--------2-----------|
A|--------------0---------2-------4--------2-----------|
E|-----------------------------------------------------|
     Go and leave me abrubtly…

Bridge?:
e|---0-2-0-2---0-0---0-0~----0-2-0-2---0-0---0-0~-----|
B|---3-3-3-3---2-2---0-0~----3-3-3-3---2-2---0-0~-----|
G|---2-2-2-2---2-2---2-2~----2-2-2-2---2-2---2-2~-----|
D|---0-0-0-0---2-2---2-2~----0-0-0-0---2-2---2-2~-----|
A|-------------0-0---2-2~--------------0-0---2-2~-----|
E|----------------------------------------------------|
                            If you can take hint from me…

e|---0-0-0-0---0-0---0-0~----0-0-0-0---0-0---0-0~-----|
B|---0-0-0-0---2-2---0-0~----0-0-0-0---2-2---0-0~-----|
G|---2-2-2-2---2-2---2-2~----2-2-2-2---2-2---2-2~-----|
D|---4-4-4-4---2-2---2-2~----4-4-4-4---2-2---2-2~-----|
A|---4-4-4-4---0-0---2-2~----4-4-4-4---0-0---2-2~-----|
E|----------------------------------------------------|
     Release…

e|----0-0-0-0-0-0-0-0-0-0-0-0-0-0-0--------|
B|----0-0-0-0-0-0-0-0-0-0-0-0-0-0-0--------|
G|----2-2-2-2-2-2-2-2-2-2-2-2-2-2-2--------|
D|----4-4-4-4-4-4-4-4-2-2-2-2-2-2-2--------|
A|----4-4-4-4-4-4-4-4-2-2-2-2-2-2-2--------|
E|-----------------------------------------|
      You’ll never, ever…

Chorus: (Piano)
e|----2~---------0~---------0~---------0~--------|
B|----3~---------2~---------0~---------0~--------|
G|----2~---------2~---------2~---------2~--------|
D|----0~---------2~---------4~---------2~--------|
A|---------------0~---------4~---------2~--------|
E|-----------------------------------------------|
    Is it enough?

e|----2~---------0~---------0-------0--------|
B|----3~---------2~---------0-------0--------|
G|----2~---------2~---------2—(12x)-2--(4x)--|
D|----0~---------2~---------2-------4--------|
A|---------------0----------2-------4--------|
E|-----------------------------------------|
     It’s keeping me up…

Chorus:
e|----2---------0---------0---------0--------|
B|----3---------2---------0---------0--------|
G|----2-(8x)----2-(8x)----2-(8x)----2-(8x)---|
D|----0---------2---------4---------2--------|
A|--------------0---------4---------2--------|
E|-------------------------------------------|
    Is it enough?

e|----2---------0---------0-------0--------0-----------|
B|----3---------2---------0-------0--------0-----------|
G|----2-(8x)----2-(8x)----2-(8x)--2-(4x)---2-(4x)------|
D|----0---------2---------2-------4--------2-----------|
A|--------------0---------2-------4--------2-----------|
E|-----------------------------------------------------|
     It’s keeping me up…

e|----2---------0---------0---------0--------|
B|----3---------2---------0---------0--------|
G|----2-(8x)----2-(8x)----2-(8x)----2-(8x)---|
D|----0---------2---------4---------2--------|
A|--------------0---------4---------2--------|
E|-------------------------------------------|
      You’re the only one…

e|----2---------0---------0-------0--------0-----------|
B|----3---------2---------0-------0--------0-----------|
G|----2-(8x)----2-(8x)----2-(8x)--2-(4x)---2-(4x)------|
D|----0---------2---------2-------4--------2-----------|
A|--------------0---------2-------4--------2-----------|
E|-----------------------------------------------------|
     Go and leave me abrubtly…

e|---2~----0~----0~-----------0-0-----|
B|---3~----0~----0~-----------0-0-----|
G|---2~----2~----2~-(3x)------2-2-----|
D|---0~----4~----2~-----------2-2-----|
A|---------4~----2~-----------2-2-----|
E|------------------------------------|
     Take our time…           . .  Enough.



Good tune.  ;)



| /  slide up
| \  slide down
| h  hammer-on
| p  pull-off
| ~  vibrato
| +  harmonic
| x  Mute note
===============================================================================
            
Submit corrections

comments powered by Disqus
↑ Back to top | Holiday Parade Tabs for Never Enough. Lyrics for acoustic guitar and electric guitar. Tablatures and chords are parodies/interpretations of the original songs. You may use it for private study, scholarship, research or language learning purposes only