>
 >
My Philosophy

My Philosophy Guitar Tabs

Holiday Parade - My Philosophy chords, tabs, tablatures, lyrics

Guitar lessons | Add/correct | Request | Top 50 tabs Artists:  A B C D E F G H I J K L M N O P Q R S T U V W X Y Z 0-9

My Philosophy Guitar Tabs – Holiday Parade

CD, Sheet music, Poster

Do you like My Philosophy? Share with your friends now
Tabs
Capo on 1st Fret

Intro + verse
|-----------------------------------------------|
|--------3----------3-------------3----------3--|
|-----4----5-----------5------4----------2------|
|--5------------5----------5----------4---------|
|-----------------------------------------------| x 2 for intro
|-----------------------------------------------| x 3 for verse 

|------------------------|
|--------3---------3-----|
|-----4-----5------------|
|--5------------5-----4--|
|------------------------|
|------------------------| 4th time end on this

chorus
|--3--3---3--3---2--2--2--2--|
|--3--3---3--3---3--3--3--3--|
|--0--0---0--0---2--2--2--2--|
|--0--0---2--2---0--0--0--0--|
|--2--2---3--3---------------|
|--3--3----------------------| x 4 

verse two second guitar comes in
|--------10-10-10---------10--7--------10-10-10--10-10-10-10--|
|-----8-----------8-----8-------8---------------8-------------|
|--7-----------------7------------7---------------------------|
|-------------------------------------------------------------|
|-------------------------------------------------------------|
|-------------------------------------------------------------|

Interlude
|------------------------2h3p2---2------------------2--2-2--2-2-|
|-----3-------3--------3-------3-------3-------3----3--3-3--3-3-|
|-------0--------------------------------0----------2--2-2--2-2-|
|---2-------0---0--0-4---------------2-------0---0--0--0-0--0-0-|
|-3-------2------------------------3-------2--------------------|
|---------------------------------------------------------------|

|--3--3---3--3-|              |--2--2--2--2--|
|--3--3---3--3-|              |--3--3--3--3--|
|--0--0---0--0-|              |--2--2--2--2--|
|--0--0---2--2-|              |--0--0--0--0--|
|--2--2---3--3-|              |--------------|
|--3--3--------| x 3 then     |--------------|  whole thing x 2 

|----------------------------2--------3p2-----|
|--------3---------3-------3---3---3-------3--|
|-----4----4--5--5---5---2-------2------------|
|--5------------------------------------------|
|---------------------------------------------| x 2 then chorus
|---------------------------------------------|





Comments


Popular Holiday Parade tabs & chords
Walking By Bass Tabs
Getaway Chords
Getaway 2 Chords
Gone Chords
Never Enough 1 Chords
Tickets & Passports Chords
Walking By Tabs
Hope Dies Last Ukulele
Success Story Ukulele
Walking By Ukulele


Song lyrics



↑ Back to top | Tablatures and chords are parodies/interpretations of the original songs. You may use it for private study, scholarship, research or language learning purposes only
© 2014 AZChords.com Contact us | Privacy policy | DMCA | Add/correct tabs | Request tabs | Top 50 tabs