>
 >
You Dress Up For Armageddon 1

You Dress Up For Armageddon 1 Guitar Tabs

Hives - You Dress Up For Armageddon 1 chords, tabs, tablatures, lyrics

Guitar lessons | Add/correct | Request | Top 50 tabs Artists:  A B C D E F G H I J K L M N O P Q R S T U V W X Y Z 0-9

You Dress Up For Armageddon 1 Guitar Tabs – Hives

CD, Sheet music, Poster

Do you like You Dress Up For Armageddon 1? Share with your friends now
TabsTabs v2Tabs v3
The Hives
You Dress Up For Armageddon
The Black and White Album


Ok, this is my very first Tab, so i'm happy for every correction ^^

Intro & Verse
E|-------------------------------|
H|-------------------------------|
G|---5-5---------8-8-------------|
D|---5-5---5-5---8-8---8-8-------|     x 14
A|---3-3---5-5---6-6---8-8-------|
E|---------3-3---------6-6-------|

Hey, believe me, I have seen your sort before
You're all over history like dust on the kitchen floor
- Tell me more
You're lips are moving, you go on and on and on
You swing your rod, rod baby rod, rod but don't
swing it at me

Bridge
E|--------------|
H|--------------|
G|--5-5---------|
D|--5-5---------|     x 1  (let ring)
A|--3-3---------|
E|--------------|

Cuz it's not for me, no I disagree

Chorus
E|------------------------------------------------------------|
H|------------------------------------------------------------|
G|--77777777--------------1010101010101010--------------------|
D|--77777777---77777777---1010101010101010---1010101010101010-|
A|--55555555---77777777---8-8-8-8-8-8-8-8----1010101010101010-|
E|-------------55555555----------------------8-8-8-8-8-8-8-8--|

E|----------------------------------------------------|
H|----------------------------------------------------|
G|-------------------------------1010101010101010-----|
D|--101010---141414---77777777---1010101010101010-----|
A|--101010---141414---77777777---8-8-8-8-8-8-8-8------|
E|--8-8-8----121212---55555555------------------------|

E|-----------------------------------------|
H|-----------------------------------------|
G|-----------------------------------------|
D|-----10101010101010101010101010101010----|    at the end of this chorus
A|-----10101010101010101010101010101010----|
E|-----8-8-8-8-8-8-8-8-8-8-8-8-8-8-8-8-----|

Cuz I heard you before wehen you said
There is a hole in my heart and itís bleeding
You dress up for Armageddon
I dress up for summer
Yeah!

Verse

Hey and now you got their attention
You know, you gotta keep 'em believing
But as a matter of fact, what they believe you're not
believing no more - Tell tell tell tell tell tell more
I hear you're one in a million - tell me more
But there's a million of you - tell, tell me more
You swing your rod, rod baby rod, rod but don't swing it at me

Bridge

It's not for me, no I disagree

Chorus

Cuz I heard you before wehen you said
There is a hole in my heart and itís bleeding
You dress up for Armageddon
I dress up for summer

E|----------------------------------------------|
H|----------------------------------------------|
G|----------------------------------------------|     let last note ring
D|----------------------------------------------|
A|----------------8-87-----------------3-32-----|
E|--5-7-9-7-5------------5-7-9-7-5--------------|

Who is that man with the microphone?
Today he is here but tomorrow he is gone

But it's not for me, no I disagree

Chorus

And I heard you before wehen you said
There is a hole in my heart and itís bleeding
You dress up for Armageddon
I dress up for summer

2nd Chorus

You feel tortured and filled with regret
You say life is void of meaning
Are they not sick of you yet?
Man that's such a, man that's such a bummer

End

E|-8-9-10-11-12-13-14


What a great Hives song. That's it so far. I think the most of it is right.
Have fun





Comments


Popular Hives tabs & chords
A K A I-D-I-O-T Bass Tabs
H8 2 Say I Told U So Bass Tabs
Hate To Say I Told U So 2 Bass Tabs
I Told You So Bass Tabs
Knock Knock 2 Bass Tabs
Try It Again Bass Tabs
Two-timing Touch And Broken Bones Bass Tabs
Main Offender (Intro Ver 2) Tabs
Main Offender Intro 1 Tabs
No Pun Intended 1 Tabs


Song lyrics



↑ Back to top | Tablatures and chords are parodies/interpretations of the original songs. You may use it for private study, scholarship, research or language learning purposes only
© 2014 AZChords.com Contact us | Privacy policy | DMCA | Add/correct tabs | Request tabs | Top 50 tabs