» » »

Hives, You Dress Up For Armageddon Tabs (ver.1)

Artists:  A B C D E F G H I J K L M N O P Q R S T U V W X Y Z # 

You Dress Up For Armageddon Tabs (ver.1)

Hives Tabs
Rating:
0/5 (0 votes)
You Dress Up For Armageddon lessons Tabs too difficult? Try these video lessons and learn fast
                The Hives
The Black and White Album

Ok, this is my very first Tab.


Intro & Verse
E|----------------------------|
H|----------------------------|
G|---5-5----------8-8---------|
D|---5-5---5-5----8-8---8-8---|     x 14
A|---3-3---5-5----6-6---8-8---|
E|---------3-3----------6-6---|

Yeah!

Hey, believe me, I have seen your sort before
You're all over history like dust on the kitchen floor
- Tell me more
You're lips are moving, you go on and on and on
You swing your rod, rod baby rod, rod but don't swing it at me

Bridge
E|-----------|
H|-----------|
G|--5---55---|
D|--5---55---|     x 1  (let ring)
A|--3---33---|
E|-----------|

Cuz it's not for me, no I disagree

Chorus
E|-------------------------------------------|
H|-------------------------------------------|
G|--77777777--------------1010101010101010---|
D|--77777777---77777777---1010101010101010---|
A|--55555555---77777777---8-8-8-8-8-8-8-8----|
E|-------------55555555----------------------|

E|--------------------------------------------------|
H|--------------------------------------------------|
G|-------------------------------1010101010101010---|
D|--101010---141414---77777777---1010101010101010---|
A|--101010---141414---77777777---8-8-8-8-8-8-8-8----|
E|--8-8-8----121212---55555555----------------------|

E|--------------------------------------------|
H|--------------------------------------------|
G|--------------------------------------------|
D|--10101010101010101010101010101010----------|  at the end of this chorus
A|--10101010101010101010101010101010----------|
E|--8-8-8-8-8-8-8-8-8-8-8-8-8-8-8-8-----------|


Cuz I heard you before wehen you said
There is a hole in my heart and it’s bleeding
You dress up for Armageddon
I dress up for summer
Yeah!

Verse

Hey and now you got their attention
You know, you gotta keep 'em believing
But as a matter of fact, what they believe you're not
believing no more - Tell tell tell tell tell tell more
I hear you're one in a million - tell me more
But there's a million of you - tell, tell me more
You swing your rod, rod baby rod, rod but don't swing it at me

Bridge

It's not for me, no I disagree

Chorus x 2

Cuz I heard you before wehen you said
There is a hole in my heart and it’s bleeding
You dress up for Armageddon
I dress up for summer

E|----------------------------------|
H|----------------------------------|
G|----------------------------------|         let last note ring
D|----------------------------------|
A|------------8-87-------------3-32-|
E|--5-7-9-7-5-------5-7-9-7-5-------|

Who is that man with the microphone?
Today he is here but tomorrow he is gone

But it's not for me, no I disagree

Chorus x 2

And I heard you before wehen you said
There is a hole in my heart and it’s bleeding
You dress up for Armageddon
I dress up for summer

2nd Chorus x 2

You feel tortured and filled with regret
You say life is void of meaning
Are they not sick of you yet?
Man that's such a, man that's such a bummer


End

E|-8-9-10-11-12-13-14


What a great Hives song. That's it so far. I think the most of it is right.
Have fun
            

comments powered by Disqus
↑ Back to top | Hives Tabs for You Dress Up For Armageddon. Lyrics for acoustic guitar and electric guitar. Tablatures and chords are parodies/interpretations of the original songs. You may use it for private study, scholarship, research or language learning purposes only