» » »

Hives, Untortured Youth Tabs (ver.1)

Artists:  A B C D E F G H I J K L M N O P Q R S T U V W X Y Z # 

Untortured Youth Tabs (ver.1)

Hives Tabs
Rating:
0/5 (0 votes)
Untortured Youth lessons Tabs too difficult? Try these video lessons and learn fast
                Hives - Untortured youth

e:    ---------            ---------             ----------           ----------
B:    ---------            ---------             ----------           ----------
G:    ---10---            ---------             ---6-----            ---5------
D:    ---10---            --8-----              ---6-----            ---5------
A:    ------8-            --8-----             ------4---           ------3---
E:    ---------            ----6---              ----------           -----------

We got an untortured youth.....


e:   ----------
B:   ----------
G:   ---10----
D:   ---10----
A:   ------8--
E:   ----------

And if i really wanted a lots of it...


Well thats the whole song!

Enjoy!
            
Submit corrections

comments powered by Disqus
↑ Back to top | Hives Tabs for Untortured Youth. Lyrics for acoustic guitar and electric guitar. Tablatures and chords are parodies/interpretations of the original songs. You may use it for private study, scholarship, research or language learning purposes only