» » »

Hives, Supply & Demand Tabs (ver.3)

Artists:  A B C D E F G H I J K L M N O P Q R S T U V W X Y Z # 

Supply & Demand Tabs (ver.3)

Hives Tabs
 Rating:
4/5 (4 votes)
Supply & Demand lessons Tabs too difficult? Try these video lessons and learn fast
1
                Verse
e|-----|-------------------------------------------|
B|-----|-------------------------------------------|
G|-----|-------------------------------------------|
D|-----|----------------------------------------5--|
A|-10--|--8-10------8-10------8-10------8-10----5--|
E|--8--|--6--8------6--8------6--8------6--8----3--|

Pre-Chorus:
e|-----------|
B|--------4--|
G|--------4--|
D|--5--5--4--|
A|--5--5--2--|
E|--3--3-----|

Chorus:
e|-----|-----------------0------|---------------------------------|
B|-----|------------------------|---------------------------------|
G|-----|--------22-2/3/4---2/0--|--------22------55---------------|
D|--22-|-22-22--22--------------|-22-22--22--55--55--22-22-22-22--|
A|--22-|-22-22--00--------------|-22-22--00--55--33--22-22-22-22--|
E|--00-|-00-00------------------|-00-00------33------00-00-00-00--|

Bridge:
e|-----------------------------------------------|
B|-----------------------------------------------|
G|-----------------------------------------------|
D|--------8-10--------8-10--------8-10--------5--|
A|--8-10--6--8--8-10--6--8--8-10--6--8--8-10--5--|
E|--6--8--------6--8--------6--8--------6--8--3--|

END
            
Submit corrections

comments powered by Disqus
↑ Back to top | Hives Tabs for Supply & Demand. Lyrics for acoustic guitar and electric guitar. 1 Tablatures and chords are parodies/interpretations of the original songs. You may use it for private study, scholarship, research or language learning purposes only