» » »

Hives, Supply & Demand Bass tabs (ver.3)

Artists:  A B C D E F G H I J K L M N O P Q R S T U V W X Y Z # 

Supply & Demand Bass tabs (ver.3)

Hives Tabs
 Rating:
4/5 (4 votes)
Supply & Demand lessons Tabs too difficult? Try these video lessons and learn fast
1
                Verse:

g:-------------------------------------------------------------------------
d:-------------------------------------------------------------------------
a:-3------1-3------1-3------1-3------1-3------1-3------1-3------1-3--------
e:--------------------------------3---------------------------------3-3-3-7

Chorus:

g:---------------------------------------------------------------------------
d:---------------------------------------------------------------------------
a:----------------------------------3------------------3-----------3-3--2-2--
e:-0-0--0-0--0-0---5-5--3--0-0--0-0---5-5--3--0-0--0-0---5-5--3-3------------

g:--------------------
d:--------------------
a:--------------------
e:-0-0--0-0--0-0--0-0-

Outro:

g:------------------
d:------------------
a:------------------
e:-0-0--0-0--0-0----

g:--------------------
d:--------------------
a:------------------3-
e:-5-5--3--0-0--0-0--- X6

g:-----------------------------------
d:-----------------------------------
a:-----------3-3--2-2----------------
e:-5-5--3-3------------0-0--0-0--0-0-

ORDER:
Verse
Chorus
Verse
Chorus
Verse
Outro
            
Submit corrections

comments powered by Disqus
↑ Back to top | Hives Bass for Supply & Demand. Lyrics for acoustic guitar and electric guitar. 1 Tablatures and chords are parodies/interpretations of the original songs. You may use it for private study, scholarship, research or language learning purposes only