» » »

See Through Head Tabs (ver.2)

Artists:  A B C D E F G H I J K L M N O P Q R S T U V W X Y Z # 

See Through Head Tabs (ver.2)

Hives
Rating:
0/5 (0 votes)

Hard to play? Try these video lessons and learn fast.
                

THE HIVES- SEE THROUGH HEAD


Intro:
I know what you're thinking
You got a mind and it's stinking
You know why?
You got a transparent cranium, a see through head
e-|---------------------------------------------------------|
B-|---------------------------------------------------------|
G-|---------------------------------------------------------|
D-|----5-4-3-5-4-3-5-4-3-5-4-3------------------------------|
A-|-------------or--------------10-9-8-10-9-8-10-9-8-10-9-8-|
E-|---------------------------------------------------------|
play this four times... then

this sounds better if u play using the full barr c chord
e-|--------------------------------------------------------------------------------------|
B-|--------------------------------------------------------------------------------------|
G-|--------------8-8-8-8---------8-8-8-8-------------13-13-13-13-8-8-8-8-10-10-10-10-----|
D-|--10-10-10-10-8-8-8-8-6-6-6-6-8-8-8-8-10-10-10-10-13-13-13-13-8-8-8-8-10-10-10-10-----|
A-|--10-10-10-10-6-6-6-6-6-6-6-6-6-6-6-6-10-10-10-10-11-11-11-11-6-6-6-6--8--8--8--8-----|
E-|---8--8--8--8---------4-4-4-4----------8--8--8--8-------------------------------------|
play this two times


Verse:
Oh oh oh oh oh
It doesn't mean a thing
e-|-6-/--8--------------------4--------------------------------------|
B-|-6-/--8--------------------4--------------------------------------|
G-|-7-/--9-------------10--8--5--8-----------------------------------|
D-|-8-/-10-10-10-10----10--8--6--8-----------------------------------|
A-|-8-/-10-10-10-10-----8--6--6--6-----------------------------------|
E-|-6-/--8--8--8--8-----------4--------------------------------------|


Chorus:
You got a head
Gets you ahead
You got a head
A see-through head full of..
e-|--------------------------------------------------------------------------------------|
B-|--------------------------------------------------------------------------------------|
G-|--------------8-8-8-8---------8-8-8-8-------------13-13-13-13-8-8-8-8-10-10-10-10-----|
D-|--10-10-10-10-8-8-8-8-6-6-6-6-8-8-8-8-10-10-10-10-13-13-13-13-8-8-8-8-10-10-10-10-----|
A-|--10-10-10-10-6-6-6-6-6-6-6-6-6-6-6-6-10-10-10-10-11-11-11-11-6-6-6-6--8--8--8--8-----|
E-|---8--8--8--8---------4-4-4-4----------8--8--8--8-------------------------------------|
play this two times


Bridge:
Doesn't matter
It's you, yeah you
It's you just you and your see-through head
e-|---------------------------------------------------------------------|
B-|---------------------------------------------------------------------|
G-|---5-4-3-5-4-3-5-4-3-5-4-3-5-4-3-------------------------------------|
D-|------or-------------------------------10-9-8-10-9-8-10-9-8-10-9-8---|
A-|---------------------------------------------------------------------|
E-|---------------------------------------------------------------------|
play this once

e-|---------------------------------------------------------|
B-|---------------------------------------------------------|
G-|---------------------------------------------------------|
D-|---5-4-3-5-4-3-5-4-3-5-4-3-------------------------------|
A-|---------------------------------------------------------|
E-|---------------------------------------------------------|
play this four times
            
Hard to play? Try these video lessons and learn fast. | Correct




comments powered by Disqus
↑ Back to top | Tablatures and chords are parodies/interpretations of the original songs. You may use it for private study, scholarship, research or language learning purposes only