» » »

Main Offender Main Tabs (ver.1)

Artists:  A B C D E F G H I J K L M N O P Q R S T U V W X Y Z # 

Main Offender Main Tabs (ver.1)

Hives
Rating:
0/5 (0 votes)

Tabs too difficult? Try these video lessons and learn fast.
                (Riff)
This might not be spot on but it sounds it, this is how me
and my band play it


e|------------------------------------------|
B|------------------------------------------|
G|------------------------------------------|
D|-----------------------------10-----------|
A|-10---10--10---10--10---10---8---10----11-|
E|-8----8---8----8---8----8--------8-----9--|

        Intro

e|------------------------------------------|
B|------------------------------------------|
G|------------------------------------------|
D|--------12-12--12-12---------10-----------|
A|-12-12--10-10--10-10--8-8-8--8--10--10-11-|
E|-10-10----------------6-6-6-----8---8--9--|

        Main riff



               THE HIVES ARE THE LAW YOU ARE THE CRIME
            
Tabs too difficult? Try these video lessons and learn fast.




comments powered by Disqus
↑ Back to top | Tablatures and chords are parodies/interpretations of the original songs. You may use it for private study, scholarship, research or language learning purposes only