» » »

Main Offender Tabs

Artists:  A B C D E F G H I J K L M N O P Q R S T U V W X Y Z # 

Main Offender Tabs

(ver. 1)
Hives Tabs
 Rating:
4/5 (4 votes)
    Main Offender lessons Tabs too difficult? Try these video lessons and learn fast
                Public Health Warning:  Do not stare at this tab too hard or your eyes will go 
			swirly and eventually explode!

This is right - I think.  I was too busy trying to find my shoes in the pit 
to remember what they were playing.  But it sounds right.  What am i saying? 
It is right!  I'm the best!! :-D


	INTRO
e|---------------------------------------------------------------------------|
B|---------------------------------------------------------------------------|
G|--11--111111--111111--111111--7-8--11--------------------------------------|
D|--12--121212--121212--121212--8-10-12--------------------------------------|
A|--12--121212--121212--121212--8-10-12--------------------------------------|
E|--10--101010--101010--101010--6-8--10--------------------------------------|

	VERSE (2 times)
e|---------------------------------------------------------------------------|
B|---------------------------------------------------------------------------|
G|--11--14-16--6-7--7-14-7-9--11-11-14-16--6-7--14-7-14-7-9--11--------------|
D|--12--15-17--7-8--8-15-8-10-12-12-15-17--7-8--15-8-15-8-10-12--------------|
A|--12--15-17--7-8--8-15-8-10-12-12-15-17--7-8--15-8-15-8-10-12--------------|
E|--10--13-15--5-6--6-13-6-8--10-10-13-15--5-6--13-6-13-6-8--10--------------|

  BREAK		  PRE-VERSE
e|----------|	e|-----------|
B|----------|	B|-----------|
G|--111111--|	G|--7-8--11--|
D|--121212--|	D|--8-10-12--|
A|--121212--|	A|--8-10-12--|
E|--101010--|	E|--6-8--10--|


	VERSE (4 times)
e|--------------------------------------------------------------------------|
B|--------------------------------------------------------------------------|
G|--11--14-16--6-7--7-14-7-9--11-11-14-16--6-7--14-7-14-7-9--11-------------|
D|--12--15-17--7-8--8-15-8-10-12-12-15-17--7-8--15-8-15-8-10-12-------------|
A|--12--15-17--7-8--8-15-8-10-12-12-15-17--7-8--15-8-15-8-10-12-------------|
E|--10--13-15--5-6--6-13-6-8--10-10-13-15--5-6--13-6-13-6-8--10-------------|

e|----------|	e|--------------------|
B|----------|	B|--------------------|
G|--111111--|	G|--9-9-9-9-9-9-9-9---|
D|--121212--|	D|--1010101010101010--|
A|--121212--|	A|--1010101010101010--|
E|--101010--|	E|--8-8-8-8-8-8-8-8---|


	CHORUS
e|---------------------------------------------------------------------------|
B|---------------------------------------------------------------------------|
G|--66666666-1111111111111111-22222222-9-9-9-9-9-9-9-9-----------------------|
D|--77777777-1212121212121212-33333333-1010101010101010----------------------|
A|--77777777-1212121212121212-33333333-1010101010101010----------------------|
E|--55555555-1010101010101010-11111111-8-8-8-8-8-8-8-8-----------------------|

e|---------------------------------------------------------------------------|
B|---------------------------------------------------------------------------|
G|--66666666-1111111111111111-2----2---14141414---------------15\------------|
D|--77777777-1212121212121212-3----3---15151515------------------------------|
A|--77777777-1212121212121212-3----3---15151515------------------------------|
E|--55555555-1010101010101010-1----1---13131313------------------------------|

  PRE-VERSE
e|-----------|
B|-----------|
G|--7-8--11--|
D|--8-10-12--|
A|--8-10-12--|
E|--6-8--10--|

	VERSE (2 times)
e|---------------------------------------------------------------------------|
B|---------------------------------------------------------------------------|
G|--11--14-16--6-7--7-14-7-9--11-11-14-16--6-7--14-7-14-7-9--11--------------|
D|--12--15-17--7-8--8-15-8-10-12-12-15-17--7-8--15-8-15-8-10-12--------------|
A|--12--15-17--7-8--8-15-8-10-12-12-15-17--7-8--15-8-15-8-10-12--------------|
E|--10--13-15--5-6--6-13-6-8--10-10-13-15--5-6--13-6-13-6-8--10--------------|


	BREAK
e|---------------------------------------------------------------------------|
B|---------------------------------------------------------------------------|
G|--2-4-6-8-2-4-6-8-2-4-6-8-2-4-6-8------------------------------------------|
D|--3-5-7-9-3-5-7-9-3-5-7-9-3-5-7-9------------------------------------------|
A|--3-5-7-9-3-5-7-9-3-5-7-9-3-5-7-9------------------------------------------|
E|--1-3-5-7-1-3-5-7-1-3-5-7-1-3-5-7------------------------------------------|

	VERSE (2 times)
e|---------------------------------------------------------------------------|
B|---------------------------------------------------------------------------|
G|--11--14-16--6-7--7-14-7-9--11-11-14-16--6-7--14-7-14-7-9--11--------------|
D|--12--15-17--7-8--8-15-8-10-12-12-15-17--7-8--15-8-15-8-10-12--------------|
A|--12--15-17--7-8--8-15-8-10-12-12-15-17--7-8--15-8-15-8-10-12--------------|
E|--10--13-15--5-6--6-13-6-8--10-10-13-15--5-6--13-6-13-6-8--10--------------|

e|----------|	e|--------------------|
B|----------|	B|--------------------|
G|--111111--|	G|--9-9-9-9-9-9-9-9---|
D|--121212--|	D|--1010101010101010--|
A|--121212--|	A|--1010101010101010--|
E|--101010--|	E|--8-8-8-8-8-8-8-8---|


	CHORUS
e|---------------------------------------------------------------------------|
B|---------------------------------------------------------------------------|
G|--66666666-1111111111111111-22222222-9-9-9-9-9-9-9-9-----------------------|
D|--77777777-1212121212121212-33333333-1010101010101010----------------------|
A|--77777777-1212121212121212-33333333-1010101010101010----------------------|
E|--55555555-1010101010101010-11111111-8-8-8-8-8-8-8-8-----------------------|

e|---------------------------------------------------------------------------|
B|---------------------------------------------------------------------------|
G|--66666666-1111111111111111-2----2---14141414---------------15\-17\-19\----|
D|--77777777-1212121212121212-3----3---15151515------------------------------|
A|--77777777-1212121212121212-3----3---15151515------------------------------|
E|--55555555-1010101010101010-1----1---13131313------------------------------|

  PRE-VERSE
e|-----------|
B|-----------|
G|--7-8--11--|
D|--8-10-12--|
A|--8-10-12--|
E|--6-8--10--|

	VERSE (2 times)
e|---------------------------------------------------------------------------|
B|---------------------------------------------------------------------------|
G|--11--14-16--6-7--7-14-7-9--11-11-14-16--6-7--14-7-14-7-9--11--------------|
D|--12--15-17--7-8--8-15-8-10-12-12-15-17--7-8--15-8-15-8-10-12--------------|
A|--12--15-17--7-8--8-15-8-10-12-12-15-17--7-8--15-8-15-8-10-12--------------|
E|--10--13-15--5-6--6-13-6-8--10-10-13-15--5-6--13-6-13-6-8--10--------------|

	OUTRO
e|----------------------|	
B|----------------------|	
G|--11--11--11--11--11--|	
D|--12--12--12--12--12--|	
A|--12--12--12--12--12--|	
E|--10--10--10--10--10--|	
		let ring...


gimmie an H!
gimmie an I!
gimmie an V!
gimmie an E!
gimmie an S!

Who Do You love?


			END OF TAB - Now Go Away :-)
            
Submit corrections

↑ Back to top | Hives Tabs for Main Offender. Lyrics for acoustic guitar and electric guitar. Tablatures and chords are parodies/interpretations of the original songs. You may use it for private study, scholarship, research or language learning purposes only