» » »

Main Offender Bass tabs (ver.2)

Artists:  A B C D E F G H I J K L M N O P Q R S T U V W X Y Z # 

Main Offender Bass tabs (ver.2)

Hives
Rating:
0/5 (0 votes)

Hard to play? Try these video lessons and learn fast.
                intro:

g:------------------------------------------------------------------
d:-----------3--5------------3-2----------3--5--------3-2---5-------
a:-2-3-4-5----------3--1--1------3-4-5---------3--1-------3---2-3-5-
e:------------------------------------------------------------------

g:------------------------------------------------------------
d:-------3--5------------3-2----------3--5--------3-2---5-----
a:--------------3--1--1------3-4-5---------3--1-------3---2-3-
e:------------------------------------------------------------

bridge:

g:-----------------------------
d:------3---3-----------------
a:--5-5---5---5-3-4------------
e:-----------------------------  X4

verse:

g:---------------------------------------------------------
d:----3--5------------3-2----------3--5--------3-2---5-----
a:-5---------3--1--1------3-4-5---------3--1-------3---2-3-
e:--------------------------------------------------------- X4

g:---------------------------------
d:---------------------------------
a:--5-ring-------------------------
e:--------------5-5-5-5-5-5-5------

chorus:

g:-------------------------------------------------
d:-------------------------------------------------
a:----------------5-5-5-5-5-5-5-5-8-8-8-8-8-8-8-8--
e:-5-5-5-5-5-5-5-----------------------------------

g:-----------------------------
d:-----------------------------
a:-10-10-10-10-10-10-10-10-----
e:-----------------------------

g:-----------------------------------------------------
d:-----------------------------------------------------
a:-------------------5-5-5-5-5-5-5-5-8-8-8-8-8-8-8-8-8-
e:--5-5-5-5-5-5-5-5------------------------------------
solo:

g:-------------------------------------------------------------------
d:------------3--5------------3-2----------3--5-------3-2----5-------
a:--2-3-4-5----------3--1--1------3-4-5----------3--1------3---2-3-5-
e:-------------------------------------------------------------------

g:---------------------------------------------------------------
d:-3--5-----------3-2----------3--5-------3-2----5---------------
a:-------3--1--1-------3-4-5---------3--1------3---2-3-5-5-5-5-5-
e:---------------------------------------------------------------

ORDER:
Intro
Bridge
Verse
Chorus
Verse
Chorus
Solo
            
Hard to play? Try these video lessons and learn fast. | Correct




comments powered by Disqus
↑ Back to top | Tablatures and chords are parodies/interpretations of the original songs. You may use it for private study, scholarship, research or language learning purposes only