» » »

Hives, Love In Plaster Tabs (ver.1)

Artists:  A B C D E F G H I J K L M N O P Q R S T U V W X Y Z # 

Love In Plaster Tabs (ver.1)

Hives Tabs
Rating:
0/5 (0 votes)
Hard to play? Try these video lessons and learn fast.
                THE HIVES
LOVE IN PLASTER
TYRANNASAURUS HIVES

VERSE

"I really thought..."

GUITAR 1
e-------------------------------------------------------------------|
B--------------------------------------6-------6-------6-------6----|
G------------------------------------5---5---5---5---5---5---5---5--|
D----------------------------------3-------3-------3-------3--------|
A--5-5-5-5-5-5-5-5-5-5-5-5-5-5-5-5----------------------------------|
E-------------------------------------------------------------------|

GUITAR 2
e-------------------------------------------------------------------|
B-------------------------------------------------------------------|
G-------------------------------------------------------------------|
D-------------------------------------------------------------------|
A---5-5-5-5-5-5-5-5-5-5-5-5-5-5-5-5---------------------------------|
E-----------------------------------1-1-1-1-1-1-1-1-1-1-1-1-1-1-1-1-|


"I thought this time..."

e---------------------------------|
B---------------------------------|
G--3-3---3---3-3---3---3-3---3--3-|
D--3-3---3---3-3---3---3-3---3--3-|
A--1-1---1---1-1---1---1-1---1--1-|
E---------------------------------|

CHORUS

GUITAR 1

e---------------------------------------------------------------------|
B----------------------------------------------------------------1----|
G-----------------------------------------------------------0-2----2--| X2
D--0----0-----0-3-0------------------3-0----0-----0-2-3-2-3-----------|
A-----3-----3-------3-0---0-3-0----0------3-----3---------------------|
E-----------------------3---------------------------------------------|

e----------------------------------|
B--6-6-6-6-6-6-6-6-8-8-8-8-8-8-8-8-|
G--7-7-7-7-7-7-7-7-9-9-9-9-9-9-9-9-|

GUITAR 2

e----------------------------------|
B--3-3-3-3-3-3-3-3-----------------|
G--2-2-2-2-2-2-2-2-----------------| X2
D--0-0-0-0-0-0-0-0-3-3-3-3-3-3-3-3-|
A------------------3-3-3-3-3-3-3-3-|
E------------------1-1-1-1-1-1-1-1-|

e------------------|
B------------------|
G------------------|
D--3-3-3-3-5-5-5-5-|
A--3-3-3-3-5-5-5-5-|
E--1-1-1-1-3-3-3-3-|

for guitar solo see guitar 1 for chorus
            

comments powered by Disqus
↑ Back to top | Hives Tabs for Love In Plaster. Lyrics for acoustic guitar and electric guitar. Tablatures and chords are parodies/interpretations of the original songs. You may use it for private study, scholarship, research or language learning purposes only