» » »

Hives, Knock Knock Tabs (ver.2)

Artists:  A B C D E F G H I J K L M N O P Q R S T U V W X Y Z # 

Knock Knock Tabs (ver.2)

Hives Tabs
 Rating:
4/5 (4 votes)
Knock Knock lessons Tabs too difficult? Try these video lessons and learn fast
                Knock, Knock
The Hives


The little intro riff is hard to tab sorry!!!

Verses:

G:-----------------------------------------------------------------------
D:----------------2-2-2-2-2-2-2-4-4-4-4-4-4-4-7-7-7-7-7-7-7---
A:4-4-4-4-4-4--0--0-0-0-0-0--2-2-2-2-2-2-2-5-5-5-5-5-5-5---  x4
E:2-2-2-2-2-2---------------------------------------------------------

Pre Chorus: 

G:--------------------------------------------------------
D:-6-6-6-6-----9-9-9-----------------------7-7-7----
A: 4-4-4-4-----7-7-7-------7-7-7-7-------5-5-5---  x2
E:-----------------------------5-5-5-5-----------------

Chorus

G:---------------------          G:----------------------------------------------------------------------------------------
D:-6-6-6-6-6-6-6-6- x1     D:-2-2-2-2-2-4-4-4-4-4-6-6-6-6-6---2-2-2-2-2-4-4-4-4-4-7-7-7-7-7-6-6-6-6- 
A:-4-4-4-4-4-4-4-4-         A:-0-0-0-0-0-2-2-2-2-2-4-4-4-4-4---0-0-0-0-0-2-2-2-2-2-5-5-5-5-5-4-4-4-4-
E:---------------------          E:-----------------------------------------------------------------------------------------



Outro

G:------------------------------
D:-2---4-----7---0---7---6--
A:-0---2-----5---0---5---4--   many times
E:------------------------------

Nice song, i can't tab this annoying introduction riff!!!
Corrections, comentaries e-mail me.
            
Submit corrections

comments powered by Disqus
↑ Back to top | Hives Tabs for Knock Knock. Lyrics for acoustic guitar and electric guitar. Tablatures and chords are parodies/interpretations of the original songs. You may use it for private study, scholarship, research or language learning purposes only