» » »

Inspection Wise 1 Tabs (ver.2)

Artists:  A B C D E F G H I J K L M N O P Q R S T U V W X Y Z # 

Inspection Wise 1 Tabs (ver.2)

Hives
Rating:
0/5 (0 votes)

Hard to play? Try these video lessons and learn fast.
                Band-The Hives
Inspection Wise 1999



I have no idea how to play the intro, this is however the rhythm guitar part. 



Verse
Repeat- 4 times 

e---------------------------------------------------------------------
B---------------------------------------------------------------------
G---9---9-8-7----7----------9---7-------------------------------------
D---9---9-8-7--9-7-7---7-7--9-9-7-7-----------------------------------
A---7---7-6-5--9-5-7---7-7--7-9-5-7-----------------------------------
E--------------7---5---5-5----7---5-----------------------------------

Chorus-3 times

e-------------------------------------------------------------------------------
B-------------------------------------------------------------------------------
G-------------------------------------9-9-9-9-9-9-9-9--7-7-7-7-7-7-7-7----------
D--9-9-9-9-9-9-9-9-9-9-9-9-9-9-9-9-9--9-9-9-9-9-9-9-9--5-5-5-5-5-5-5-5----------
A--9-9-9-9-9-9-9-9-9-9-9-9-9-9-9-9-9--7-7-7-7-7-7-7-7---------------------------
E--7-7-7-7-7-7-7-7-7-7-7-7-7-7-7-7-7--------------------------------------------


Ending-1 time

e------------------------------------------------------------------------------
B------------------------------------------------------------------------------
G------------------------------------------------------------------------------
D------------------------------------------------------------------------------
A------------------------------------------------------------------------------
E--7-10-7-10-7---7-10-7-10-7---7--10-7-10-7---7-10-7-10-7--cont..--------------
            
Hard to play? Try these video lessons and learn fast. | Correct




comments powered by Disqus
↑ Back to top | Tablatures and chords are parodies/interpretations of the original songs. You may use it for private study, scholarship, research or language learning purposes only