» » »

Hives, Inspection Wise 1 Tabs (ver.3)

Artists:  A B C D E F G H I J K L M N O P Q R S T U V W X Y Z # 

Inspection Wise 1 Tabs (ver.3)

Hives Tabs
 Rating:
4/5 (4 votes)
Inspection Wise 1 lessons Tabs too difficult? Try these video lessons and learn fast
                "(9)
intro
 
 E|--3-----0-------------------------0---0---|
 B|----0-3-----2-0---0---2-0---0---3---3-----|
 G|----------------2---------2---------------|
 D|------------------------------------------|
 A|------------------------------------------|
 E|------------------------------------------|

riff 1
 E|---------------------------------------------|
 B|---------------------------------------------|
 G|--9---9-8-7-----7-----------9-9-----7-7------|
 D|--9---9-8-7---9-7---7---7-7-9-9-9-9-7-7-7-7--|
 A|--7---7-6-5---9-5---7---7-7-7-7-9-9-5-5-7-7--|
 E|--------------7-----5---5-5-----7-7-----5-5--|

riff 2
 E|------------------------------------|
 B|------------------------------------|
 G|-------------------9-9-9-9----------|
 D|--9-9-9-9-9-9-9-9--9-9-9-9-7-7-7-7--|
 A|--9-9-9-9-9-9-9-9--7-7-7-7-7-7-7-7--|
 E|--7-7-7-7-7-7-7-7----------5-5-5-5--|

outro
 E|---------------------------------|
 B|---------------------------------|
 G|---------------------------------|
 D|---------------------------------|
 A|--9-9--9-9--9-----9-9--9-9--9----|
 E|--7-10-7-10-7-----7-10-7-10-7----|

listen to cd to see how many parts for everything




“only throwing back what you’ve been putting in my face.”
"            
Submit corrections

comments powered by Disqus
↑ Back to top | Hives Tabs for Inspection Wise 1. Lyrics for acoustic guitar and electric guitar. Tablatures and chords are parodies/interpretations of the original songs. You may use it for private study, scholarship, research or language learning purposes only