» » »

Hives, I Hate To Say Tabs (ver.1)

Artists:  A B C D E F G H I J K L M N O P Q R S T U V W X Y Z # 

I Hate To Say Tabs (ver.1)

Hives Tabs
 Rating:
4/5 (4 votes)
I Hate To Say lessons Tabs too difficult? Try these video lessons and learn fast
                
Main Riff
-------------------------------------------|
-------0----------0----------0-------------|
-11-11-0-9--9--9--0-14-14-14-0-7-7-7-7-x-x-|
-12-12-0-10-10-10-0-15-15-15-0-8-8-8-8-x-x-|
-12-12-0-10-10-10-0-15-15-15-0-8-8-8-8-x-x-|
-10-10---8--8--8----13-13-13---6-6-6-6-x-x-|


-------------------------------------------|
-------0----------0----------0-------------|
-11-11-0-9--9--9--0-14-14-14-0-7-7-7-7-x-x-|
-12-12-0-10-10-10-0-15-15-15-0-8-8-8-8-x-x-|
-12-12-0-10-10-10-0-15-15-15-0-8-8-8-8-x-x-|
-10-10---8--8--8----13-13-13---6-6-6-6-x-x-|
            
Submit corrections

comments powered by Disqus
↑ Back to top | Hives Tabs for I Hate To Say. Lyrics for acoustic guitar and electric guitar. Tablatures and chords are parodies/interpretations of the original songs. You may use it for private study, scholarship, research or language learning purposes only