» » »

If I Had A Cent Tabs (ver.1)

Artists:  A B C D E F G H I J K L M N O P Q R S T U V W X Y Z # 

If I Had A Cent Tabs (ver.1)

Hives
Rating:
0/5 (0 votes)

Hard to play? Try these video lessons and learn fast.
                The Hives - If I Had A Cent



This is my FIRST tab, but im pretty sure this is accurate. if they're any mistakes 
please comment and please rate!

Listen to the song further to figure out the strumming patterns.


Tuning: Standard - EADGBe


Intro



e|----------------------------------------|--------------------------------------------|
B|----------------------------------------|---------------------10-10-10-10-10-10-10-10|
G|-11-11-11/9-9-9\14-14-14-14-14-14-14-14-|14-14-14-14\16-16-16/11-11-11-11-11-11-11-11|
D|-11-11-11/9-9-9\14-14-14-14-14-14-14-14-|14-14-14-14\16-16-16/11-11-11-11-11-11-11-11|
A|-9--9--9-/7-7-7\12-12-12-12-12-12-12-12-|12-12-12-12\14-14-14/9--9--9--9--9- 9--9--9-|
E|----------------------------------------|--------------------------------------------|


e|----------------------------------------|--------------------------------------------|
B|----------------------------------------|--------------------------------------------|
G|-11-11-11/9-9-9\14-14-14-14-14-14-14-14-|14-14-14-14\16-16-16/11-11-11-11-11-11-11-11|
D|-11-11-11/9-9-9\14-14-14-14-14-14-14-14-|14-14-14-14\16-16-16/11-11-11-11-11-11-11-11|
A|-9--9--9-/7-7-7\12-12-12-12-12-12-12-12-|12-12-12-12\14-14-14/9--9--9--9--9- 9--9--9-|
E|----------------------------------------|--------------------------------------------|



Verse

e|---------------|----------------|
B|---------------|----------------|
G|-11~---16-14-11|11-----16-14-11-|
D|-11~---16-14-11|11-X32-16-14-11-|
A|-9-~---14-12-9-|9------14-12-9--|
E|---------------|----------------|


Pre Chorus

e|---------------|
B|---------------|
G|---------------|
D|-7------9------|
A|-7 x16--9 x16--|
E|-5------7------|


Chorus

e|----------------------------------------|--------------------------------------------|
B|----------------------------------------|---------------------10-10-10-10-10-10-10-10|
G|-11-11-11/9-9-9\14-14-14-14-14-14-14-14-|14-14-14-14\16-16-16/11-11-11-11-11-11-11-11|
D|-11-11-11/9-9-9\14-14-14-14-14-14-14-14-|14-14-14-14\16-16-16/11-11-11-11-11-11-11-11|
A|-9--9--9-/7-7-7\12-12-12-12-12-12-12-12-|12-12-12-12\14-14-14/9--9--9--9--9- 9--9--9-|
E|----------------------------------------|--------------------------------------------|


e|----------------------------------------|--------------------------------------------|
B|----------------------------------------|--------------------------------------------|
G|-11-11-11/9-9-9\14-14-14-14-14-14-14-14-|14-14-14-14\16-16-16/11-11-11-11-11-11-11-11|
D|-11-11-11/9-9-9\14-14-14-14-14-14-14-14-|14-14-14-14\16-16-16/11-11-11-11-11-11-11-11|
A|-9--9--9-/7-7-7\12-12-12-12-12-12-12-12-|12-12-12-12\14-14-14/9--9--9--9--9- 9--9--9-|
E|----------------------------------------|--------------------------------------------|



Verse

e|-----------------|------------------|
B|-----------------|------------------|
G|-11~---16--14--11|11-----16--14--11-|
D|-11~---16--14--11|11-X32-16--14--11-|
A|-9-~---14--12--9-|9------14--12--9--|
E|-----------------|------------------|

Pre Chorus

e|---------------|
B|---------------|
G|---------------|
D|-7------9------|
A|-7 x16--9 x16--|
E|-5------7------|

Chorus x 2

e|----------------------------------------|--------------------------------------------|
B|----------------------------------------|---------------------10-10-10-10-10-10-10-10|
G|-11-11-11/9-9-9\14-14-14-14-14-14-14-14-|14-14-14-14\16-16-16/11-11-11-11-11-11-11-11|
D|-11-11-11/9-9-9\14-14-14-14-14-14-14-14-|14-14-14-14\16-16-16/11-11-11-11-11-11-11-11|
A|-9--9--9-/7-7-7\12-12-12-12-12-12-12-12-|12-12-12-12\14-14-14/9--9--9--9--9- 9--9--9-|
E|----------------------------------------|--------------------------------------------|


e|----------------------------------------|--------------------------------------------|
B|----------------------------------------|--------------------------------------------|
G|-11-11-11/9-9-9\14-14-14-14-14-14-14-14-|14-14-14-14\16-16-16/11-11-11-11-11-11-11-11|
D|-11-11-11/9-9-9\14-14-14-14-14-14-14-14-|14-14-14-14\16-16-16/11-11-11-11-11-11-11-11|
A|-9--9--9-/7-7-7\12-12-12-12-12-12-12-12-|12-12-12-12\14-14-14/9--9--9--9--9- 9--9--9-|
E|----------------------------------------|--------------------------------------------|

[Remember this whole chorus is done twice, not once]


Post Chorus / Break

e|--------------|---------------------|
B|--------------|---------------------|
G|-16--14--11~--|-11-----14-17-x-x-x-x|
D|-16--14--11~--|-11 x24-14-17-x-x-x-x|
A|-14--12--9~---|-9------12-15-x-x-x-x|
E|--------------|---------------------|


Pre CHorus
e|----------------------------------------|--------------------------------------------|
B|----------------------------------------|---------------------10-10-10-10-10-10-10-10|
G|-11-11-11/9-9-9\14-14-14-14-14-14-14-14-|14-14-14-14\16-16-16/11-11-11-11-11-11-11-11|
D|-11-11-11/9-9-9\14-14-14-14-14-14-14-14-|14-14-14-14\16-16-16/11-11-11-11-11-11-11-11|
A|-9--9--9-/7-7-7\12-12-12-12-12-12-12-12-|12-12-12-12\14-14-14/9--9--9--9--9- 9--9--9-|
E|----------------------------------------|--------------------------------------------|


e|----------------------------------------|--------------------------------------------|
B|----------------------------------------|--------------------------------------------|
G|-11-11-11/9-9-9\14-14-14-14-14-14-14-14-|14-14-14-14\16-16-16/11-11-11-11-11-11-11-11|
D|-11-11-11/9-9-9\14-14-14-14-14-14-14-14-|14-14-14-14\16-16-16/11-11-11-11-11-11-11-11|
A|-9--9--9-/7-7-7\12-12-12-12-12-12-12-12-|12-12-12-12\14-14-14/9--9--9--9--9- 9--9--9-|
E|----------------------------------------|--------------------------------------------|

Chorus x 2
e|----------------------------------------|--------------------------------------------|
B|----------------------------------------|---------------------10-10-10-10-10-10-10-10|
G|-11-11-11/9-9-9\14-14-14-14-14-14-14-14-|14-14-14-14\16-16-16/11-11-11-11-11-11-11-11|
D|-11-11-11/9-9-9\14-14-14-14-14-14-14-14-|14-14-14-14\16-16-16/11-11-11-11-11-11-11-11|
A|-9--9--9-/7-7-7\12-12-12-12-12-12-12-12-|12-12-12-12\14-14-14/9--9--9--9--9- 9--9--9-|
E|----------------------------------------|--------------------------------------------|


e|----------------------------------------|--------------------------------------------|
B|----------------------------------------|--------------------------------------------|
G|-11-11-11/9-9-9\14-14-14-14-14-14-14-14-|14-14-14-14\16-16-16/11-11-11-11-11-11-11-11|
D|-11-11-11/9-9-9\14-14-14-14-14-14-14-14-|14-14-14-14\16-16-16/11-11-11-11-11-11-11-11|
A|-9--9--9-/7-7-7\12-12-12-12-12-12-12-12-|12-12-12-12\14-14-14/9--9--9--9--9- 9--9--9-|
E|----------------------------------------|--------------------------------------------|

End

e|--------------|------|
B|--------------|------|
G|-16--14--11~--|11///-|
D|-16--14--11~--|11///-|
A|-14--12--9~---|9-///-|
E|--------------|------|

Cheers!



| /  slide up
| \  slide down
| h  hammer-on
| p  pull-off
| ~  vibrato
| +  harmonic
| x  Mute note
            
Hard to play? Try these video lessons and learn fast. | Correct




comments powered by Disqus
↑ Back to top | Tablatures and chords are parodies/interpretations of the original songs. You may use it for private study, scholarship, research or language learning purposes only