» » »

Hate 2 Say I Told U So Bass tabs (ver.3)

Artists:  A B C D E F G H I J K L M N O P Q R S T U V W X Y Z # 

Hate 2 Say I Told U So Bass tabs (ver.3)

Hives
Rating:
0/5 (0 votes)

Hard to play? Try these video lessons and learn fast.
                Come in on 00:10

G-
D-
A-555           x6
E-

Verse 00:14

-----------------------------
----4-------0000-5-3333-
55---3333----------------       x4
-----------------------------


Drum Break 00:29


Verse 00:35

-----------------------------
----4-------0000-5-3333-
55---3333----------------       x8
-----------------------------


Chorus 1:03


--------
--------
--------
55--33   x4


Verse 1:07

-----------------------------
----4-------0000-5-3333-
55---3333----------------       x2
-----------------------------

Chorus 1:14

--------
--------
--------
55--33   x6



Verse 1:21

-----------------------------
----4-------0000-5-3333-
55---3333----------------       x8
-----------------------------



Chorus 1:49

--------
--------
--------
55--33   x4



Verse 1:53

-----------------------------
----4-------0000-5-3333-
55---3333----------------       x2
-----------------------------

Chorus  2:00

--------
--------
--------
55--33   x6

Solo 2:07


--------------------
--------------------
--------------------         x8
550-330-880-110 

2:35

------------
------------
------------
-55555555


Verse 2:42

-----------------------------
----4-------0000-5-3333-
55---3333----------------       x8
-----------------------------

Please rate this is my first tab and I love this song you can add some little fills
To the end of the chorus if u want to!
            
Hard to play? Try these video lessons and learn fast. | Correct




comments powered by Disqus
↑ Back to top | Tablatures and chords are parodies/interpretations of the original songs. You may use it for private study, scholarship, research or language learning purposes only