» » »

A Get Together To Tear It Apart Tabs (ver.1)

Artists:  A B C D E F G H I J K L M N O P Q R S T U V W X Y Z # 

A Get Together To Tear It Apart Tabs (ver.1)

Hives
Rating:
4/5 (3 votes)
Tabs too difficult? Try these video lessons and learn fast.
                THE HIVES ----------- A GET TOGETHER TO TEAR IT APART

riff 1
 E|--77-777-777-777-55-555-555-555-55-555-555-555-33-333-333-333--|
 B|--77-777-777-777-55-555-555-555-77-777-777-777-33-333-333-333--|
 G|--88-888-888-888-66-666-666-666-77-777-777-777-44-444-444-444--|
 D|--99-999-999-999-77-777-777-777-77-777-777-777-55-555-555-555--|
 A|--99-999-999-999-77-777-777-777-55-555-555-555-55-555-555-555--|
 E|--77-777-777-777-55-555-555-555----------------33-333-333-333--|

riff 2
 E|--77-777-777-777-777-777-777-777----------|
 B|--77-777-777-777-777-777-777-777----------|
 G|--88-888-888-888-888-888-888-888----------|
 D|--99-999-999-999-999-999-999-999----------|
 A|--99-999-999-999-999-999-999-999----------|
 E|--77-777-777-777-777-777-777-777----------|


 E|------------------------------------------|
 B|---------------------7-7-5~---------------|
 G|--7--7--7--7--6------7-7-6~---------------|
 D|--7--7--7--7--7------7-7-7~---------------|
 A|--5--5--5--5--7--7h9----------------------|
 E|--------------5---------------------------|

the chorus is just the first part
but played each chord a bit shorter
listen to the song
for how many times for each part

?cause i found the backdoor out of teenage hell, all right!?
            
Tabs too difficult? Try these video lessons and learn fast.


comments powered by Disqus
↑ Back to top | Tablatures and chords are parodies/interpretations of the original songs. You may use it for private study, scholarship, research or language learning purposes only