» » »

Die, Alright Tabs (ver.2)

Artists:  A B C D E F G H I J K L M N O P Q R S T U V W X Y Z # 

Die, Alright Tabs (ver.2)

Hives
Rating:
0/5 (0 votes)

Hard to play? Try these video lessons and learn fast.
                Band  - The Hives
Song  - Die Alright
Album - Your New Favourite Band

This is my interpretation.

h = hammer on
b = bend 
p = pull off
t = tap
/ = slide



Chorus
e --------------------
B --------------------
G --------------------
D -2-5-7--5-9-9-9-9-9-
A -2-5-7--5-9-9-9-9-9-
E -0-3-5--3-7-7-7-7-7-


Verse
e ------------------------------------------------------
B ------------------------------------------------------
G -11-11-11-11-11-11-11-11-7-7-7------------------------
D -11-11-11-11-11-11-11-11-7-7-7--5-5-5-5-5-5-5-5-7-7-7-
A -9--9--9--9--9--9--9--9--5-5-5--5-5-5-5-5-5-5-5-7-7-7-
E --------------------------------3-3-3-3-3-3-3-3-5-5-5-

There is another bit that im trying to work out, im nearly
there and will update this tab when i get it but until then
if you know it please emial me.
            
Hard to play? Try these video lessons and learn fast. | Correct




comments powered by Disqus
↑ Back to top | Tablatures and chords are parodies/interpretations of the original songs. You may use it for private study, scholarship, research or language learning purposes only